Alice In Chains

Alice In Chains
Man In The Box Solo (Guitar tab)

song:man in the box (solo)
band:alice in chains
album:facelift(also on greatest hits)

this is one kickass solo, enjoy.

guitar 1 plays rythmn(not shown)
guitar 2 plays the start of the solo
guitar 3 joins guitar 2 when shown

key:
h-hammer on
p-pull off
^-bend
v=release
/-slide
x-muted string
[ ]-artificial harmonic



gtr 2
|------------------------------------------------|
|------------------------------------------------|
|------------------------------------------------|
|------------------------------------------------|
|5h7p5h7p5h7p5h7p5h7p5h7p5h7p5h7p5h7p5h7p5h7p5h7-|
|------------------------------------------------|X2

grad
hold bend___________________________release_____
|--------------------------------------------------------------------------------------|
|--------------------------------------------------------------------------------------|
|----7-9-9^--v-9-7---------------------14^-14-14-14-14-14-14-14-14-14-14-14-14-14-14-14|
|7-9---------------9-8-7----7-7^v---7/-------------------------------------------------|
|------------------------10------------------------------------------------------------|
|--------------------------------------------------------------------------------------|

slow
bend
|---------------------------------------------------12--12-15-15^---v-15-12------------|
|---------------/12-12-15p12----12-15p12-15^v^V-15^------------------------------------|
|14-14^vp12------------------14---------------------------------------------12-14--15^-|
|-----------14-------------------------------------------------------------------------|
|--------------------------------------------------------------------------------------|
|--------------------------------------------------------------------------------------|


| |---------------------------------------------------|
| |-------------15------------------------------------|
| |---------------------------------------------------|
| |---------------------------------------------------|
| |---------------------------------------------------|
| |---------------------------------------------------|
|
| gtr 3
| |---------------x-x---------------x-----------------|
| |---------------x-x--------x------------------------|
| |----------------------------12-----14^--14--12-----|
| |--x-x-5-------------12h14-----------------------14-|
| |--x-x----7-----------------------------------------|
| |3--------------------------------------------------|


| |-------------------------------------------------------------|
| |-------------------15--------[15]---15h17---------17p15/-x-x-|
| |------------------------------------------24-26^---------x-x-|
| |---------------------------------------------------------x-x-|
| |-------------------------------------------------------------|
| |-------------------------------------------------------------|
|
|
| |-------------------------------------------------------------|
| |12----------------------------15-----------------------------|
| |---15-14-12---14^--14^-12------------------------------------|
| |--------------------------14---------------------------------|
| |-------------------------------------------------------------|
| |-------------------------------------------------------------|


| |7-7-----7------7--------------------------------------------|
| |8-8-x-x-8--x---8--------------------------------------------|
| |7-7-----7----7-7-----------------------2-0------------------|
| |9-9-----9------9------2--x-x-x-x-0h2-------2-0-2------------|
| |----x-x----x-------------x-x-x-x-----0----------------------|
| |----x-x----x-------3^----x-x-x-x---------------------3------|
|
|
| |------------------------------------------------------------|
| |-------------------------------------------0----------------|
| |-------------------------------------2^--------2^vp0--------|
| |-----------------------------------------------------2----2-|
| |------------------------------------------------------------|
| |------------------------------------------------------------|

OptimusPrime

Submitted by OptimusPrime at Sun 01 Dec, 2002 8:17 am

Author: ?
Composer: ?
Publisher: ?
Language: English

Reactions

CommonCrawl [Bot]

Follow Muzikum