Bon Jovi

Bon Jovi
One Wild Night Ver 2 (Guitar tab)

"One Wild Night" -- Bon Jovi
Tabbed by Kyle

Standard Tuning

Intro

Both Guitars
|-------------------------------------------------------------------------------------------------|
|-------------------------------------------------------------------------------------------------|
|-------------------------------------------------------------------------------------------------|
|------------------------------------------------------------1-1---1------------------------------|
|--3-3-----3--------------1-1-----1-3-3-1-----1----3-3-----3-----3---3-1-1-1-----1-3-3-1-----1----|
|------3-3---4-4-3-4~-4-3-----3-3---------3-3---3------3-3-------------------3-3---------3-3---3--|

======================================================================================================
Verse

Both Guitars
|--------------------------------------------------|
|--------------------------------------------------|
|--------------------------------------------------|
|------------------1-------------------------------|
|--3-3-----1-3-3-----3-1--3-3-----1-3-3-1-----1----|
|------3-3-------3------------3-3---------3-3---3--|

======================================================================================================
Chorus

Guitar 1
Play Intro

Guitar 2
|--------------------------|
|--------------------------|
|--5-----3--5--5--8--3--5--|
|--5--6--3--5--5--8--3--5--|
|--3--6--1--3--3--6--1--3--|
|-----4--------------------|

======================================================================================================
"One wild, one wild, one wild, one wild night..."

Guitar 1
|---------------------|
|--8-6----------------|
|------8-7-5----------|
|------------8-5------|
|----------------8-6--|
|---------------------|

Guitar 2
|------|
|------|
|--3~--|
|--3~--|
|--1~--|
|------|

======================================================================================================
Bridge

"Na na, nanana, na na, na-na naaa.."

Both Guitars
|--------|
|--------|
|--5-5~--|
|--5-5~--|
|--3-3~--|
|--------|

======================================================================================================
Solo

Guitar 1
|--------------------------------------------------------------------------|
|--8/11/13-13~-13\11-11/13-13~-13\11-11/13-11~-11~-11\8-8/11/13-13~-13\11--|
|--------------------------------------------------------------------------|
|--------------------------------------------------------------------------|
|--------------------------------------------------------------------------|
|--------------------------------------------------------------------------|

|----------------------------------------------------------------------------------------------------|
|--13/16-16\13-13/16-16\13-13/16-16\13-13/16-16\13--13/11-11~-11~-11\8-8/11/13~--8-6-----------------|
|------------------------------------------------------------------------------------8-7-5-----------|
|------------------------------------------------------------------------------------------8-5-------|
|----------------------------------------------------------------------------------------------8-6\--|
|----------------------------------------------------------------------------------------------------|

Guitar 2
Play Intro, then "one wild, one wild...etc" part

======================================================================================================
This is pretty accurate...though not too detailed. They throw in a lot
of harmonics and fills and stuff. Especially on the bridge and verse.
Just have fun with it, really...it's a great song.
E-mail kyle_gumby@hotmail.com with any suggestions or questions or such.

#^(#) .. Bend to note in ( )
#^(#)r .. Bend to note in ( ) and release to original note
h ....... Hammer on
p ....... Pull off
~ ....... Vibrato/hold note
( ) ..... Held only for a second or hardly heard due to
feedback, other notes picked, etc.
/........ Slide up the neck (Towards pickups)
\........ Slide down the neck (Away from pickups)
...... Harmonic

OptimusPrime

Submitted by OptimusPrime at Sun 01 Dec, 2002 8:32 am

Author: ?
Composer: ?
Publisher: ?
Language: English

Reactions

CommonCrawl [Bot]

Follow Muzikum