Bon Jovi

Bon Jovi
Livin On A Prayer Ver 2 (Guitar chord)

Livin on a Prayer
Bon Jovi
Slippery When Wet

Riff

e|-------------------------------------------------------------------
b|-------------------------------------------------------------------
g|-------------------------------------------------------------------
d|-------------------------------------------------------------------
a|----7---5-------5--------------------------------------------------
E|--0---7---0-0-7---------------------------------------------------


Verses

Riff
Tommy used to work on the dock

Riff
Union's been on strike; he's down on his luck

C D
It's tough, so tough

(same for all the verses.....just listen to the CD)

Pre Chorus

C D Em
They say we gotta hold on to what we've got

C D Em
Doesn't make a difference if we make it or not

C D Em C
We've got each other; thats a lot for love

D
We'll give it a shot!

Chorus

Em C D
Whoa.......oh.........We're half way there

G C D
Whoa.......oh.........Livin on a Prayer

Em C D
Take my hand, we'll make it I swear

G C D
Whoa.......oh.........Livin on a Prayer

listen for the solo......it's around the 12th fret

e|-------------------12-14-15------------------------------------------
b|----------------------------15-13-12-13-15b-15b-15r-12-13-12-----------
g|----------------------------------------------------12-14-12-11b-11r-
d|-------5-5-7b-7r-----------------------------------------------------12
a|-7-5-7-----------5------------------------------------------------
E|------------------------------------------------------------------

e|12-14-15---------------------------------------------------------------
b|---------15-13-12-13------------------------------------------------
g|---------------------12-14b------------------------------------------
d|--------------------------------------------------------------------
a|--------------------------------------------------------------------
E|--------------------------------------------------------------------

that's it then there's a key change but u dun have to do it but if u wanna it's Bb, Eb, F and G, Eb, F for the take my hand part

OptimusPrime

Submitted by OptimusPrime at Sun 01 Dec, 2002 8:31 am

Author: ?
Composer: ?
Publisher: ?
Language: English

Reactions

CommonCrawl [Bot]

Follow Muzikum