Bon Jovi

Bon Jovi
Wanted Dead Or Alive (Guitar tab)

"I have searched many sites for this tabulation but unfortunately I haven't found
any of them correct so I decided to tab my self."

e|--------13---------12---------10--------9--------7-------5-----
B|-----------15---------12---------10-------10-------7-------6---
G|-----14---------12---------10---------9--------7-------5-------
D|---0----------0----------0----------0--------0-------0---------
A|---------------------------------------------------------------
E|---------------------------------------------------------------

e|-------3--------2----|-------------------0-----------|
B|---------5--------3--|---------------------4-3-------|
G|-----4--------2------|-------------------------------|
D|---0--------0--------|-----------0-3-0---------------|
A|---------------------|---0-0-0-3---------------------|
E|---------------------|-------------------------------|

"This is the correct way of tabing it took me nearly months to tab form
listing to this song in the cd and tab."
Any comments will make to me, I'll appreciate it very much.
Mail me at :-
reezoom@hotmail.com

OptimusPrime

Submitted by OptimusPrime at Sun 01 Dec, 2002 8:31 am

Author: ?
Composer: ?
Publisher: ?
Language: English

Reactions

CommonCrawl [Bot]

Follow Muzikum