Bon Jovi

Bon Jovi
Thank You For Loving Me Ver 2 (Guitar tab)

BON JOVI
Thank You For loving me
Album: CRUSH
Tab: Bj�rn Elsner (Bjoern.Elsner@gmx.de)

INTRO(Piano arr. for Guitar)
------------------------------
------------------------------
--------6--8--10--8--6-----6--
------------------------8-----
------------------------------
------------------------------

----------------------------------
----------------------------------
--------6--8--10--8--6---6--8/10\8
-----------------------8----------
----------------------------------
----------------------------------

GUITAR FILL
-----------------------
--8-/10-\-8--6---------
---------------8-6-8~~-
-----------------------
-----------------------
-----------------------
There are some more shorter guitar fills in the intro.
but i didn't tab them.
I don't know how often the part above is played(play it about 3 or 4 times).


VERSE 1:
It's hard for me to see the things
I want to see sometimes
It's no one here but you and me
that broken old street light
like the doors, leave the world outside (FILL 1)
all I've got to give to you are these five words and I

CHORUS:
Thank you for loving me
For be in my eyes
when i couldn't see
about of my lips
when i couldn't breathe
Thank you for loving me
Thank you for loving me

VERSE 2:
I never knew i had a dream
And trough the dream was you (?)
And then I look into your eyes
the sky's a different blue
Cause my heart, i can not describe
And if I try you make me leave when you believe my lies

CHORUS

BRIDGE:
You pick me up when I fall down
You ain't the bell that count me out
If I was crying above the sea,this girl comes to rescue me
Yeah,Yeah,Yeah,Yeah,Yeah

SOLO

(Short)VERSE 3:
like the doors, leave the world outside
all I've got to give to you are these five words and I

CHORUS

INTRO as OUTRO
-------------------------------
THE 1st FILL and The solo
Fill 1)
---------------
-------1--3--5-
---------------
---------------
---------------
---------------

SOLO(not 100% complete but 98% ;)
-----------------------------------
------------------5-7-9-10~-9b-10~-
-9p7-7h9b-5-7-5\-------------------
-----------------------------------
-----------------------------------
-----------------------------------

That's all-I'm out - Bj�rn-

OptimusPrime

Submitted by OptimusPrime at Sun 01 Dec, 2002 8:31 am

Author: ?
Composer: ?
Publisher: ?
Language: English

Reactions

CommonCrawl [Bot]

Follow Muzikum