Bon Jovi

Bon Jovi
These Days (Guitar tab)

Bon Jovi, These Days.
This is a first time tab, see what you all think
Its only the beginning, but there is more
to come as soon as i find time.

This sounds good on the Acoustic but if
you add a little distortion to your electric, it sounds
real good

LICK 1: INTRO AND OUTRO
|----------------------------2------------------0------------------------------------2-----------------0----------------------
|--------------1----------3---3----------0-------0-------------------1-----------3---3---------0------0--------------------
|-----------0----0---------------2---------0-----------------------------0--------------2----------0-------------------------
|--------------------0-0---------------2------------2-2p0------------------2-0--------------2------------2-2p0-----------
|---------3--------------------------2-----------------------0-2s3-------------------------2-----------------------0-2s3---
|-------------------------------------------------------------------------------------------------------------------------------

|----------------2-----------
|--1----------3----3--------
|-----0---------------2-----
|--------2-0-------------0-- < Here move quicly to an Em
|----------------------------
|----------------------------

Verse 1
C D Em
I was walking around, just a face in the crowd try to keep myself out of the rain
C D Em
Saw a vagabond king wear a styrofoam crown wondered if I might end up the same
C D Em C
There's a man out on the corner, singing old songs about change
D G
everybody got their cross to bare, these days.
Verse 2
C D Em
She came looking for some shelter with a suitcase full of dreams
C D Em
To a motel room on the boulevard I guess she's trying to be James Dean
C D Em C D Em
She's seen all the disciples and all the 'wanna be's' no one wants to be themselfs these days
C D G
Still there's nothing to hold on to but these days
Chorus
C D
These days the stars ain't out of reach
Em C D G
These days there ain't a ladder from the streets oh no no
C D G C
These days are fast, nothing lasts in this graceless age
C D G
There ain't nobody left but us these days
Verse 3 (JUST THE SAME AS VERSE)
Jimmy shoes busted both his legs, trying to learn to fly
From a second story window, he just jumped and closed his eyes
His momma said he was crazy - he said momma "I've got to try"
Don't you know that all my heroes died And I guess I rather die f f f fade away - yeah
Chorus (THE SAME AS CHORUS BEFORE)
These days the stars ain't out of reach
These days there ain't a ladder from the streets oh no no no
These days are fast, nothing lasts in this graceless age
D Em
Even innocence has caught the midnight train
There ain't nobody left but us these days
Bridge
C Am C Am
C Am C Am
I know Rome's still burning though the times have changed
C Am D C
This world keeps turning round and round and round and round these days
Solo (HAVENT IT FINISHED YET SO PLAY) C D G x?
Chorus
These days the stars ain't out of reach
These days there ain't a ladder from the streets oh no no no
These days are fast, nothing lasts in this graceless age
Even innocence has caught the midnight train
There ain't nobody left but us these days
Chorus
These days the stars ain't out of reach
These days there ain't a ladder from the streets oh no no no
These days are fast, nothing last there ain't no time to waste
There ain't nobody left to take the blame
C D G
There ain't nobody left but us these days
C D Em C D G
There ain't nobody left but us these days
(OVER THE LAST LINE PLAY THE LICK AT THE TOP)
ANY CORRECTIONS OR PROBLEMS, QUESTIONS ON THIS TAB, EMAIL, yoajc@hotmail.com
GOODLUCK PLAYIN,
Transcribed By Andrew Connolly , AKA The GOAT

OptimusPrime

Submitted by OptimusPrime at Sun 01 Dec, 2002 8:31 am

Author: ?
Composer: ?
Publisher: ?
Language: English

Reactions

CommonCrawl [Bot]

Follow Muzikum