Blur

Blur
Song #2 Ver 2 (Bass tab)

Artist: Blur
Song: Song 2
Tabbed by: letsgotothepunkrawkshow (Tom)

Riff A
G--------------------------------
D--------------------------------
A------------------1-1-3-5-5-5-5-
E-3-3-3-3-1-1-1-1----------------

Riff B
G-------------------------------
D-------------------------------
A--------------3-3-5-7--7-7-7-7-
E-5-5--3-3-3-3------------------

Riff C
G----------------------------------------------------------------
D----------------------------------------------------------------
A---------------------------------6-6-6-6-6-6-6-6-6-6-6-6-6-6-6-6
E-3-3-3-3-3-3-3-3-6-6-6-6-6-6-6-6--------------------------------

Riff D
G-----------------
D-----------------
A-----------------
E-4-3-3-2/5-5-6-7-

Order:
Riff A x4
Pause
Riff B x3
Riff C x1
Riff D x2
Pause
Riff B x3
Riff C x1
Riff D x4

OptimusPrime

Submitted by OptimusPrime at Thu 14 Aug, 2003 4:16 pm

Author: ?
Composer: ?
Publisher: ?

Reactions

CommonCrawl [Bot]

Follow Muzikum