Blur

Blur
Shes So High (Bass tab)

Blur
Bass to "She's So High"


Intro:

(Guitar)

A -0000-0000-3333-3303--


Main:
p
G ----------(3)/10-0--------------------------------------
D ---------------------------------5------------p-h-------
A -3-5--0-3----------0--3-5--0-5-7---0--3-5--0-3-0-3-2----
E -----------------------------------------------------3--

D ----------------------
A -0000-0000-3333-3303--
E ----------------------


Verse:

A --3-5--0-333-0-- 2x --3-5--0-332---0000-0000-3333-3303--
E ---------------- -------------3----------------------


Middle:

A --3-5--0-333-0-- (Repeat) --0000-0000-0000-00-2-3----

A --0-0-------
E -------333--

("She doesn't help me...")

A --5-5-------- 2x -5-5--------------------
E ------0-0-5-- -----0-0-0-0-5555-5555--

OptimusPrime

Submitted by OptimusPrime at Thu 14 Aug, 2003 4:16 pm

Author: ?
Composer: ?
Publisher: ?
Language: English

Reactions

CommonCrawl [Bot]

Follow Muzikum