Blur

Blur
Entertain Me (Bass tab)

================================================================================
Title : entertain me
Artist : blur
Album : the grat escape
Transcribed by : Chico Queiroz
================================================================================

Legend
------

h = hammer-on
p = pull-off
b = bend
r = bend release
/ = slide up/down
= natural harmonic
[5] = artifical harmonic
~ = vibrato
tr = trill





E--------------------|-----------------|---------|---------|-----------
B--------------------|-----------------|---3---1-|---3-1---|-----------
G----------3---------|---------3-5-3-5-|-----3---|-------3-|-1h3-3-1-3-
D--5-5-3-5---5-0h3-5-|-0h5-3-5---------|-1-------|-1-------|-----------





E|-----------|-----------------------------|----------||-
B|-1---------|---------1---1---------------|---------*||-
G|---3---1h3-|---3-1-3---3---3---3h5-3-5-3-|---------*||-
D|-----3-----|-3---------------3-----------|-3-1-3-4--||-

OptimusPrime

Submitted by OptimusPrime at Thu 14 Aug, 2003 4:16 pm

Author: ?
Composer: ?
Publisher: ?
Language: English

Reactions

CommonCrawl [Bot]

Follow Muzikum