Blur

Blur
Coffee & Tv (Bass tab)

Author/Artist: Blur
Title: Coffee & TV (bass)
Album: 13
Transcribed by: genco
Email: genco85@yahoo.com

------------------------------------------------------------------------------
-9-9--7-9-9-----9-9--9-9---7-9-7-7--7-7---5-7---------------------------------
-------------9-----------9--------------7-----7-7--7-7---5-7/10-10--10-10-----
-------------------------------------------------------7----------------------
do you feel like a chain store...

------------------------------------1-3---------------------------------------
----------------------------------3------------------4/9-9--7-9-9----9-9--9---
----8-10-8-8-7-7-5-5-3-3-1-1--1-1-------4-4--4-4---2---------------9----------
-10----------------------------------------------4----------------------------


------------------------------------------------------------------------------
-9---7-9-7-7--7-7---5-7-------------------------------------------------------
---9--------------7-----7-7--7-7---5-7/10-10--10-10----8-10-8-8--8-8-8-8-8-1--
---------------------------------7------------------10------------------------


------------------------------------------------------------------------------
------------------7-------7-------7-------2-4---------------------------------
-1--1-1-1-1-1-0-0---0-0-0---0-0-0---0-0-4-----4-4--2-4-4----4-4--2-4-4-2--2---
----------------------------------------------------------4-------------------


------------------------------------------------------------------------------
---------------------7--------------------------------------------------------
-2---2-2-2-0--0-0--0---0-2-2-4-4--4-4-4--4/7-7--7-7-7--7\0-0--0-0-0-0-1-2-2---
------------------------------------------------------------------------------


------------------------------------------------------------------------------
-----1-4----------------------------------------------------7-----------------
-2-2-----2-4-4--2-4-4----4-4--2-4-4-2--2-2--2-2-2-0--0-0--0---0-0-2--4-4--2-4-
-----------------------4------------------------------------------------------


------------------------------------------------------------------------------
------------------------------------------------------------5-6-7-7--7-7-7----
-4--4/7-7--7-7-7--7\0-0--0-0-0-0-4-5-5--5-5-5--5-5-5--5-5-5-------------------
------------------------------------------------------------------------------


------------------------------------------------------------------------------
---7-7-7--7-7---7-8-9-9--7-9-9----9-9--9-9---7-9-7-7--7-7---5-7---------------
--------------7-----------------9----------9--------------7-----7-7--7-7---5--
-------------------------------------------------------------------------7----
do you go to the country...(same as above)............

-------9-8-9-11-9-8--9-8-9-11-9-----------------------------------------------
-7-8-9-9-9-9-9--9-9--9-9-9-9--9---0-0--0-0-0--0-0-0--0-0-0-5-6-7-7--7-7-7--7--
------------------------------------------------------------------------------
------------------------------------------------------------------------------
aaaaaah.. we can start over again...

----------------9-8-9-11-9-8--9-8-9-11-9--------------------------------------
-7-7--7-7-7-8-9-9-9-9-9--9-9--9-9-9-9--9---0-0--0-0-0--0-0-0---0-0-0-5-6-7-7--
------------------------------------------------------------------------------
------------------------------------------------------------------------------
play this till end...

OptimusPrime

Submitted by OptimusPrime at Thu 14 Aug, 2003 4:16 pm

Author: ?
Composer: ?
Publisher: ?
Language: English

Reactions

CommonCrawl [Bot]

Follow Muzikum