Blur

Blur
Song 2 Ver 5 (Guitar tab)

Band: Blur
Song: Song 2

Hey, this song is pretty straightforward if you have any comments
e-mail me at fly_guy96@hotmail.com (I also tabbed spoonman2 by
soundgarden i just forgot to put my e-mail).


Intro/Verses:
e ------------------------------------------------------
b --------------------------------------------------------
g ----9----9----7----7--7----------------------------------
d ----9----9----7----7--7--5---5----7----9----9----9-----
a ----7----7----5----5--5--5---5----7----9----9----9--- x2
e -------------------------3---3----5----7----7----7-----
woo who!!! Woo who!!!

Chorus/Outro:
e ------------------------------------------------------
b ------------------------------------------------------
g ------------7---7--7-------------------------------
d ---2---2----7---7--7----5---5---7---9----9--9----- x2
a ---2---2----5---5--5----5---5---7---9----9--9-----
e ---0---0----------------3---3---5---7----7--7-----

That's it!!!! If you have any comments e-mail me!!!!

OptimusPrime

Submitted by OptimusPrime at Sun 01 Dec, 2002 8:33 am

Author: ?
Composer: ?
Publisher: ?
Language: English

Reactions

CommonCrawl [Bot]

Follow Muzikum