Blur

Blur
Song 2 Live (Guitar tab)

Author/Artist: blur
Title: song 2
Transcribed by: Saverain
Email: saverain@hotmail.com

This is what it sounds like to me and if you don't like it
E-mail me
you'll have to find the lyrics somewhere else sorry. I are not to good words
v strum down
^ strum up
m mute
s strum down slowly
This should be right. I think this is close to write if it isn't e-mail me
This is an awsome sounding song. You can use the verse for the intro it doesn't
matter to me
I don't own this song I got a piece of it off of the internet so it may not be r
ight.
D TUNING

-|-----------------------------------------|---------|------------------------
-|-10-10-10-x-x-8-8-8-x-x-9-9/11-----------|-x-x-x-x-|-10-10-x-x-8-8-8-x-x-9--
-|-10-10-10-x-x-8-8-8-x-x-8-8/10/12--12-12-|-x-x-x-x-|-10-10-x-x-8-8-8-x-x-8--
-|-10-10-10-x-x-8-8-8-x-x-6-6/8-/10--10-10-|-x-x-x-x-|-10-10-x-x-8-8-8-x-x-6--
-|-8--8--8--x-x-6-6-6-x-x-6-6/8-/10--10-10-|-x-x-x-x-|-8--8--x-x-6-6-6-x-x-6--
-|-----------------------------------------|---------|------------------------
v v v v ^ v v v v ^ v v v ^ ^ v v ^ v ^ v v verse quik

------------------------|-----------------------------------|----|------------
-9/11-----------x-x-x-x-|-----------------------------------|----|------------
-8/10/12--12-12-x-x-x-x-|-5-5-5-5-3-3-3-3-------------------|----|-5-5-5-5-5--
-6/8-/10--10-10-x-x-x-x-|-3-3-3-3-1-1-1-1-6-6-8/10--10-10-0-|-3x-|-3-3-3-3-3--
-6/8-/10--10-10-x-x-x-x-|-3-3-3-3-1-1-1-1-6-6-8/10--10-10-0-|----|-3-3-3-3-3--
------------------------|-3-3-3-3-1-1-1-1-6-6-8/10--10-10---|----|-3-3-3-3-3--
v ^ continue v ^ v ^ ^ v ^ v ^ cont

-------------------------------------------------------|----------------------
-------------------------------------------------------|----------------------
-5-5-5-----------------3-3-3-3-3-3-3-3-3-3-3-3-3-3-3-3-|----------------------
-3-3-3-6-6-6-6-6-6-6-6-1-1-1-1-1-1-1-1-1-1-1-1-1-1-1-1-|-3----------3-3-6-6-8-
-3-3-3-6-6-6-6-6-6-6-6-1-1-1-1-1-1-1-1-1-1-1-1-1-1-1-1-|-3--6p3-6p3-3-3-6-6-8-
-3-3-3-6-6-6-6-6-6-6-6-1-1-1-1-1-1-1-1-1-1-1-1-1-1-1-1-|-3--5p3-5p3-3-3-6-6-8-
v v v v ^

-------------|---|------------------------------------------------------------
-------------|---|------------------------------------------------------------
-------------|---|------------------------------------------------------------
-/10-10-10-0-|2x-|------------------------------------------------------------
-/10-10-10-0-|---|------------------------------------------------------------
-/10-10-10---|---|------------------------------------------------------------

OptimusPrime

Submitted by OptimusPrime at Sun 01 Dec, 2002 8:33 am

Author: ?
Composer: ?
Publisher: ?
Language: English
Available on: Parklive - CD 2 (2012)

Reactions

CommonCrawl [Bot]

Follow Muzikum