Blur

Blur
Bad Day (Guitar tab)

BAD DAY

(intro)

D

D
Do you do anything you do?

C A D A
No she said

D
Do you want anything you ever wanted?

C A D A
No she said

(fill 1)

e ------------------
B ------------------
G --5-4-2-0---------
D ----------3--4-5--
A ------------------
E ------------------

(fill 2)

e -------------
B -------------
G ---h-p-------
D --5-7-5-7-5--
A -------------
E -------------

D A D
She don't know how

A D
How to feel

A D
This is a bad day

A D
This is a bad day

C
To know

fill 3

e ---------------------
B ---------------------
G ----------0---0---2--
D --------2---2---0----
A ------3--------------
E --5-7----------------

D
Do you have anything you ever had?

C A D A
No she said

D
Do you love anyone you ever loved?

C A D A

Yes she said

(middle 4x)

e ---------------------------
B ---------------------------
G ---------------------------
D --4---4---5---5---5---5----
A ----5---5---4---4---4---4--
E ---------------------------

This is to feel lost in your world

(solo)

e ---------------p-------- --------------p-----p-----
B --------------8-6----6-- -------------8-6---8-6----
G --7-5---p--5------77---- --7-5--p--5------7-----7--
D -------7-5-3------------ (3x) ------7-5-3---------------
A ------------------------ --------------------------
E ------------------------ --------------------------

OptimusPrime

Submitted by OptimusPrime at Wed 06 Feb, 2002 6:23 pm

Author: ?
Composer: ?
Publisher: ?
Language: English

Reactions

CommonCrawl [Bot]

Follow Muzikum