Blur

Blur
Best Days (Guitar tab)

BEST DAYS

(intro 2x)

C G Ab F
e --------3----------------3------------------4---------------1--
B --------1----------------3------------------4---------------1--
G -----0------0--------4--------4-------------5---------------2--
D -----------------------------------------6---------------3-----
A --3------------------------------------------------------------
E ----------------3-------------------4--------------1-----------

(verse)

C Am C Am
e ------------------------------------------------------------------
B --------1-------1----0-1-0----------------1------------0-1-0-1----
G --------0-------0----------2----0---------0---------0-------------
D ----2---2---2---2------------2--------2---2---2---2------------2--
A --3-----3-------3------------------3------3-----------------------
E ------------------------------------------------------------------

Dm Dm/C G Dm
e --------1---------------1-----------------------------------1-----
B --------3---------------3-----------------------------------3-----
G -----2------2-------2-------2-----------0----------------2-----2--
D --0---------------------------------0-------------0---0-----------
A ----------------3---------------------------0h2-------------------
E --------------------------------3---------------------------------

Dm/C F G
e ------1----------1-----------------------------------------------3----
B ------3----------1-------------------------------3-----------------3--
G ----2---2--------2----0h2p0-------0---0h2/4-----------4h5p4-----------
D -----------------3-----------3---------------5---------------5--------
A --3-------------------------------------------------------------------
E --------------1-------------------------------------------------------

C Am C
Bow Bells say goodbye to the last train
Am
Over the river they all go again
Dm (BassC) G Dm (BassC)
Out into leafy nowhere hope someone's
F G
Waiting out there for them
C Am C
Cabbie has his mind on a fare to the sun
Am
He works nights but it's not much fun
Dm (BassC) G Dm (BassC) F
Picks up the London yo-yo's All on their own down Soho
G
Please take me home

(chorus)

C C/B Am7 Ab
e ----------0---------------0---------------3----------------------
B ----------1---------------1---------------1-------------------4--
G ------0-------0-------0-------0-------2-------2-----------5------
D ------------------------------------------------------6----------
A --3---------------2---------------0------------------------------
E --------------------------------------------------4--------------

G F Ab G
e -----3---------------------------------
B -----3---------1------------4-------3--
G -----4---------2------------5-------4--
D ---------------3--3---------6-------5--
A ------------3---------------6-------5--
E --3------1--------------4-------3------

C (BassB) Am7
Other people wouldn't like to hear you
Ab (BassG) F Ab G
If you said that these are the best days of their lives
C (BassB) Am7
Other people turn around and laugh at you
Ab (BassG) F Ab G C
If you said that these are the best days Of our lives

Dm (BassC) G
Trellick Tower's been calling
Dm (BassC) F G
I know she'll leave me in the morning

In hotel cells listening to dial tones
Remote controls and cable moans
In his drink he's been talking
Gets disconnected sleepwalking back home

Other people wouldn't like to hear you
If you said That these are the best days of our lives
Other people turn around and laugh at you If you said
That these are the best days Of our lives
Other people break into a cold sweat
If you said that these are the best days of their lives
And other people turn around and laugh at you if you said
That these are the best days of our lives of our lives

(solo)

e --20\19-19\17-17\15-15-------------------------------------------
B ----------------------16-16\15-15\14-14--------------------------
G ---------------------------------------16-16\14-14\12-12\10-10\--
D -----------------------------------------------------------------
A -----------------------------------------------------------------
E -----------------------------------------------------------------

e -------------------------------------------------------
B ------------------------------------------0-1-0-1------
G --9-9\7-7\5-5\4-4---------------------------------2----
D -----------------5-5-2-3-5-5\3-3\2-2----------------0--
A ------------------------------------5-5\3--------------
E -------------------------------------------------------

OptimusPrime

Submitted by OptimusPrime at Wed 06 Feb, 2002 6:23 pm

Author: ?
Composer: ?
Publisher: ?
Language: English

Reactions

CommonCrawl [Bot]

Follow Muzikum