Blur

Blur
Bugman (Guitar tab)

BUGMAN

(intro)

e -----------------------------------------
B --6--6--6-6-6---2--2-2--x-x--4--2--4--2--
G --7--7--7-7-7---3--3-3--x-x--5--3--5--3--
D --8--8--8-8-8---4--4-4--x-x--6--4--6--4--
A -----------------------------------------
E -----------------------------------------

A# F# G# F# G# F#
I am an ex offender

A# F# G# F# G# F#
They let me out in the summer

A# F# G# F# G# F#
I think I was in a coma

A# F# G# F# G# F#
I didn't know what to do, oh no

C# E
You go hang around go round

F# G#
I'll watch myself hang on, look out for the Bugman

C# E
You go hang around around

F#
I'll watch myself hang on, look out for the Bugman

A# F# G# F# G# F#
I got no scent of existence

A# F# G# F# G# F#
I know the nodding dogs

A# F# G# F# G# F#
I go out in the city

A# F# G# F# G# F#
I stay away from the bugs, oh yeah

e ------------------------------------------------
B ------------------------------------------------
G ------------------------------------------------ 2x
D ------------------------------------------------
A ------------------------------------------------
E --6--6-6--4--6--6-6--4--6--6-6--4--6--1--4-5-6--

e --------------------------- --------------------------
B --------------------------- --------------------------
G --------------------------- 2x --------------------------
D --------------------------- --------------------------
A --------------------------- --------------------------
E --6--6-6-6-6-6-6-6--1-4-5-- --6--6-6-6-6-6-6-6-5-4-1--

e ----------------------------------
B ----------6-----------------------
G ----------6------------p----p-----
D --------6----------6--8-6--8-6----
A ----6-8--------6-8-------------8--
E --6----------6--------------------

e --1-4-6-4-6-4-6-4-6-4-6-4-6-4-6-4-6-4-6-4-6-4-6--
B -------------------------------------------------
G -------------------------------------------------
D -------------------------------------------------
A -------------------------------------------------
E -------------------------------------------------

Space is the place...

OptimusPrime

Submitted by OptimusPrime at Wed 06 Feb, 2002 6:23 pm

Author: ?
Composer: ?
Publisher: ?
Language: English

Reactions

CommonCrawl [Bot]

Follow Muzikum