Blur

Blur
Fool (Guitar tab)

FOOL

INTRO: D
D Em G
------2--0------------3-----3--
--------------------0---0---0--
----2----------0----------0-0--
--0---------------0------------
-----------0h2-----------------
-------------------------------

FILL 1 TO PLAY IN THE VERSES:
D (Em) G
-------2-------------------------
---------3-----3------3------3---
-----2-----------4--4---4--4---4-
--0----------5-------------------
-----------5---------------------
---------------------------------

VERSE 1:PLAY THE FILL
D Em G
Sorry but I don't understand
D Em G
The things you say they make no sense at all
D Em G
Funny but I think that you mean them all
D Em G
This time,don't you?

CHORUS 1:
D G Em
I know that you think I'm a fool
G D G Em
But couldn't you try to forgive a fool
G
One more time

VERSE 2:
D Em G
Sorry but I'm not really listening
D Em G
I've got my mind on something else
D Em G
Sometimes I wonder if I'm here
D Em G
If I'm here at all

CHORUS 2:
D G Em G
I know that you want me to go,don't you?
D G Em G
But it's not as easy as it seems
D G Em G
I know that you think I'm not here at all
D G Em G
But I'm just as fed up as you

BRIDGE:
-------------------------------------
-------------------------------------
--7-------7-------4--7-------7-------
----5s4s5---7s6s7------7--7----5s4s5-
-------------------------------------
-------------------------------------

--------------------------------------
--------------------------------------
--7-------4--7------------------------
----7s6s7------7--7--4--5--4--5--4--2-
--------------------------------------
--------------------------------------

FILL 1 (x4)
Aah! Aah! Aah!

CHORUS 3:
D G Em G
I know that you want me to leave
D G Em G
I'm amazed at how cold you can be
D G Em G
Well may my weak and insipid soul grow stronger
D G Em G
In your absence

FILL 1 (x4)
Aah! Aah! Aah!

D Em G (x4)
Aah! Aah! Aah!

ENDING:
G A Bm

OptimusPrime

Submitted by OptimusPrime at Wed 06 Feb, 2002 6:23 pm

Author: ?
Composer: ?
Publisher: ?
Language: English

Reactions

CommonCrawl [Bot]

Follow Muzikum