Blur

Blur
Music Is My Radar (Guitar tab)

Date: Sun, 4 Feb 2001 19:04:51 -0500
From: stephen
Subject: b/blur/music_is_my_radar.tab

BLUR
MUSIC IS MY RADAR

Transcribed by STEPHEN CONSTANTINE (influx@dingoblue.net.au)

This tab is entirely my own work. It is incomplete.

Any comments, hate mail, improvements etc etc to influx@dingoblue.net.au



Intro. Played by some other instrument, but arranged for guitar:

x2
E-|----------------------------------|-
B-|----------------------------------|-
G-|--9--7--9--7--9----7--9--7--9--7--|-
D-|----------------------------------|-
A-|----------------------------------|-
E-|----------------------------------|-


Bass played during intro:

E-|--------------------|-
B-|--------------------|-
G-|--------------------|-
D-|--------------------|-
A-|--------0-----2-----|-
E-|--0--3-----3-----0--|-


RIFF 1 - 0:56, and 3:09
x2
E-|-----------------------------------------------------|-
B-|--------------------------------------5--3--5--3--5--|-
G-|---------------------4----4--7--4--7-----------------|-
D-|--------5--7--5--7-----7-----------------------------|-
A-|--7--5-----------------------------------------------|-
E-|-----------------------------------------------------|-

E-|--3-----3-----5--3--5--7--12-|-
B-|-----5-----5-----------------|-
G-|-----------------------------|-
D-|-----------------------------|-
A-|-----------------------------|-
E-|-----------------------------|-

RIFF 2 - 2:54
x4
E-|-----------------------------------|-
B-|-----------------------------------|-
G-|-----------------------------------|-
D-|--7br--5--7br--5-----5-----7p5-----|-
A-|------------------7-----7-------7--|-
E-|-----------------------------------|-




hope this helps.

OptimusPrime

Submitted by OptimusPrime at Tue 18 Dec, 2001 12:52 pm

Author: ?
Composer: ?
Publisher: ?
Language: English

Reactions

CommonCrawl [Bot]

Follow Muzikum