Blur

Blur
Inertia (Guitar tab)

Date: Mon, 13 Nov 2000 15:30:38 -0500
From: AAuuddee@aol.com
Subject: b/blur/inertia.tab


INERTIA
BLUR
FROM THERE'S NO OTHER WAY B-SIDE
1991
--------------------------------
Tabbed by AAuuddee@aol.com


INTRO:

G F#
------------------------------0---------------
------3---5p3-------------------2-------------
----4---4-----4-------4-----3-----4p3------3--
--5-------------5---5-----4--------------4----
--5---------------5-----4--------------4------
--3---------------------2---------------------

E
------------------------------
------------------------------
--9b11-9---9---9--9--9--9--9--repeat
------------------------------
------------------------------
------------------------------


VERSE1:

E E A E
-----0-----------------------0-----------------------0--
-----0-----------------------0-----------------------0--
-----1--1--2p1----repeat-----1--4b6r4--2--1---1---1--1--
-----2---------2-------------2--------------2---2----2--
-----2-----------------------2-----------------------2--
--0--0--------------------0--0-----------------------0--

A F# A
-----------------2--0--
-----------------2--2--
--4b6r4--2--1----3--2--
--------------2--4--2--
-----------------4--0--
-----------------2-----


CHORUS:

E
--------------------------
--------------------------
--9b11-9---9--9--9--9--9--repeat
--------------------------
--------------------------
--------------------------

G F#
------------------------------0---------------
------3---5p3-------------------2-------------
----4---4-----4-------4-----3-----4p3------3--
--5-------------5---5-----4--------------4----
--5---------------5-----4--------------4------
--3---------------------2---------------------

E
------------------------------
------------------------------
--9b11-9---9---9--9--9--9--9--repeat
------------------------------
------------------------------
------------------------------


VERSE2: same as verse1


CHORUS:play the chords with disto in the same time
when they are indicated

E(022100) A(x02220)
----------------------------------------
----------------------------------------
--9b11-9---9--9--9--9--9--repeat--11~~--
----------------------------------------
----------------------------------------
----------------------------------------

E(022100)
--------------------------
--------------------------
--9b11-9---9--9--9--9--9--
--------------------------
--------------------------
--------------------------

G(355433) F#(244322)
------------------------------0---------------
------3---5p3-------------------2-------------
----4---4-----4-------4-----3-----4p3------3--
--5-------------5---5-----4--------------4----
--5---------------5-----4--------------4------
--3---------------------2---------------------

E(022100)
------------------------------
------------------------------
--9b11-9---9---9--9--9--9--9--
------------------------------
------------------------------
------------------------------

------------------------------
------------------------------
--9b11-9---9---9--9--9--9--9--
------------------------------
------------------------------
------------------------------

A second guitar starts to play the *
------------------------------
------------------------------
--9b11-9---9---9--9--9--9--9--
------------------------------
------------------------------
------------------------------

------------------------------
------------------------------
--9b11-9---9---9--9--9--9--9--
------------------------------
------------------------------
------------------------------

*is:

E
-----0-------------------
-----0-------------------
-----1--1--2p1----repeat-
-----2---------2---------
-----2-------------------
--0--0-------------------


VERSE3: same as the other verses


CHORUS:play the chords with disto in the same time
when they are indicated

E(022100) A(x02220)
----------------------------------------
----------------------------------------
--9b11-9---9--9--9--9--9--repeat--11~~--
----------------------------------------
----------------------------------------
----------------------------------------

E(022100)
--------------------------
--------------------------
--9b11-9---9--9--9--9--9--
--------------------------
--------------------------
--------------------------

G(355433) F#(244322)
------------------------------0---------------
------3---5p3-------------------2-------------
----4---4-----4-------4-----3-----4p3------3--
--5-------------5---5-----4--------------4----
--5---------------5-----4--------------4------
--3---------------------2---------------------

E(022100)
------------------------------
------------------------------
--9b11-9---9---9--9--9--9--9--repeat
------------------------------
------------------------------
------------------------------

E(022100)
(------------------------------
(------------------------------
(--9b11-9---9---9--9--9--9--9--
(------------------------------
(------------------------------
(------------------------------

D(xx0232) G(355422)F#(244322)
------------------------------------0--------)
-----------------------------5p3------2------)
--7b9--7---7---7--7--7--7--7-----4------4p3--)
---------------------------------------------)repeat the ()
---------------------------------------------)
---------------------------------------------)

E
--0--
--0--
--1--
--2--
--2--
--0--


END!!!

OptimusPrime

Submitted by OptimusPrime at Tue 18 Dec, 2001 12:52 pm

Author: ?
Composer: ?
Publisher: ?
Language: English

Reactions

CommonCrawl [Bot]

Follow Muzikum