Blur

Blur
London Loves (Guitar chord)

TAB: London Loves by Blur
Tabbed by: Deni Durousseau

This is my first attempt at tabbing something; I think its quite
accurate. Please be gentle. Note: You might need to use a Courier font
to make this look right.


Intro: Guitar out/Keyboard intro
4x
|----------------|
|----------------|
|----------------|
|----------------|
|----------------|
|----------------|

Verse:
G F
Riff A-----------------------------------------------|
|------3----/5-5-5-5-5----|------3--------------------|
|------3----/6-6-6-6-6----|------3--------------------|
|------4----/5-5-5-5-5----|------4--------------------|
|-5-----------------------|-5-------------------------|
|-5-----------------------|-5-------------------------|
|-3-----------------------|-3-------------------------|
| Guit. 1*
|-------------------------|---------------------------|
|-------------------------|---------------------------|
|-------------------------|---------------------------|
|-------------------------|----------7-8-7-0-2-3-2-0--|
|-------------------------|---------------------------|
|-------------------------|---------------------------|
Guit. 2* light P.M. -------------------|

*Although, on record, these parts are played by two guitars, they can
easily be played by one.

Chorus:
_____________________________________________
| 1, 2, 3 | 4 |
A5 B5 | F#5 | F#5 F5 |
|------------------------|----------------------|----------------------|
|o-----------------------|---------------------o|----------------------|
|--2----2----4--4--4--4--|----------------------|----------------------|
|--2----2----4--4--4--4--|-4----4---------------|-4----4------3--3--3--|
|o-0----0----2--2--2--2--|-4----4--------------o|-4----4------3--3--3--|
|------------------------|-2----2-----0--2--0---|-2----2------1--1--1--|
Guit. 1


The solo during one of the verses is mostly just feedback and
improvised.


Outro solo:

Guit. 1 plays Riff A during this part (play xx times til fade)
|-----------------------|--------------------------|
|o----------------------|-------------------------o|
|-----------------------|----------2h3p2-----------|
|--3----3---------------|-3----3-------------------|
|o-2----2---------------|-2----2------------------o|
|--3----3----1--0--1--0-|-3----3----------0--1--0--|
Guit. 2

Well, that's about it.

Later,

Deni Durousseau


______________________________________________________
Get Your Private, Free Email at http://www.hotmail.com

OptimusPrime

Submitted by OptimusPrime at Mon 19 Nov, 2001 8:28 pm

Author: ?
Composer: ?
Publisher: ?
Language: English

Reactions

CommonCrawl [Bot]

Follow Muzikum