Blur

Blur
Coffee And Tv (Bass tab)

Song: Coffee + Tv
Artist: Blur
Album : 13

Date : 2/12/99
Tabbed by Marco "o' Pastore" &
Axl

Listen to the CD for timing!(follow the lyrics up the bass line...)

Main riff(play it over and over!):
"Do you feel like a chainstore?....Practically floored......................
G|----------------------------------------------------------------------------------
D|----------------------------------------------------------------------------------
A|-14-14-13-14-14-13-14-14-13-14-14-14-13-------------------------------------------
E|----------------------------------------17-17-15-17-0-15-17--12-12-11-12-12-12-12-

.....One of many zeroes,.....................kicked around bored?"
--------------------------------------------------------------------------------|
--------------------------------------------------------------------------------|
-----------------------------------------------------------16-16-15-16-16-16-16-|
-15-15-14-15-0-13-15--13-13-12-12-10-10-8-8-6-6-5-6-6-6-6-----------------------|

To request bass and guitar tabs,comment and suggestion write to tabcreator@yahoo.it

OptimusPrime

Submitted by OptimusPrime at Mon 19 Nov, 2001 8:28 pm

Author: ?
Composer: ?
Publisher: ?
Language: English

Reactions

CommonCrawl [Bot]

Follow Muzikum