The Blues Brothers
B Movie Boxcar Blues (Bass tab)

Date: Sun, 8 Sep 2002 12:26:32 +0200 (CEST)
From: Jan Bj�rklund
Subject: b/blues_brothers/b_movie_boxcar_blues.btab

blues_brothers-b_movie_boxcar_blues(live).btab

Basstab by Jan Bjorklund, Finland;
jani_bjorklund@yahoo.se
You are welcome to request for basstabs!
Bienvenidos a pedirme transcripciones para el bajo!
Fingering and positions as suggested by TablEdit.

TablEdited by Jan Bjorklund for Martino
Tuning : E A D G Time Signature: 4/4


(The intro is without bass but here the pumpin' starts))
| | | | | | | |
|--------------------------------|--------------------------------|
|--------------------------------|--------------------------------|
|--------------------------------|--------------------------------|
|----0-------0-------0-------0---|----0-------0-------0-------0---|

| | | | | | | |
|--------------------------------|--------------------------------|
|--------------------------------|--------------------------------|
|--------------------------------|--------------------------------|
|----0-------0-------0-------0---|----0-------0-------0-------0---|

| | | | | | | |
|--------------------------------|--------------------------------|
|--------------------------------|--------------------------------|
|--------------------------------|--------------------------------|
|----0-------0-------0-------0---|----0-------0-------0-------0---|

| | | | | | | |
|--------------------------------|--------------------------------|
|--------------------------------|--------------------------------|
|--------------------------------|--------------------------------|
|----0-------0-------0-------0---|----0-------0-------0-----5-----|

| | | | | | | |
|--------------------------------|--------------------------------|
|--------------------------------|--------------------------------|
|--------------------------------|--------------------------------|
|0-------0-1-2-3-3-----2-3-------|0-------0-1-2-3-3-----2-3---1---|

| | | | | | | |
|--------------------------------|--------------------------------|
|--------------------------------|--------------------------------|
|--------------------------------|--------------------------------|
|0-------0-1-2-3-3-----2-3-------|0-------0-1-2-3-3-----2-5---6---|

| | | | | | | |
|--------------------------------|--------------------------------|
|--------6-----6-----------------|----------------5/7-------------|
|----------------9-----9---------|5-----------5-------------------|
|7-----7-----------------7---8-9-|------5-5-----------5-----3-----|

| | | | | | | |
|--------------------------------|--------------------------------|
|--------------------------------|--------------------------------|
|--------------------------------|--------------------------------|
|0-------------------------------|5---------------------15--------|

| | | | | | | |
|--------------------------------|--------------------------------|
|--------------------------------|--------------------------------|
|--------------------------------|--------------------------------|
|--------3-------0---------------|0---------------0-------0-1-2-3-|

| | | | | | | |
|--------------------------------|--------------------------------|
|--------------------------------|--------------------------------|
|--------------------------------|--------------------------------|
|3-----2-3---1-3-0-------0-1-2-3-|3-2-3-----------0-------0-1-2-3-|

| | | | | | | |
|--------------------------------|--------------------------------|
|--------------------------------|--------------------------------|
|--------------------------------|--------------------------------|
|3-----2-3---1-3-0---0---0-1-2-3-|3-2-3---2-3-2---0-------0-1-2-3-|

| | | | | | | |
|--------------------------------|--------------------------------|
|--------------------------------|--------------------------------|
|--------------------------------|--------------------------------|
|3-----2-3-------0-------0-1-2-3-|3-----2-3-------0-------0-1-2-3-|

| | | | | | | |
|--------------------------------|--------------------------------|
|--------------------------------|------------------------6---6---|
|--------------------------------|--------------------------------|
|3-----2-3-------0---0---0-1-2-3-|4-----4-5---6---7-----7---------|

| | | | | | | |
|--------------------------------|--------------------------------|
|4-----4-----------------6-----6-|4-----4-----4/14----------------|
|--------6---4-------------------|--------6-----------------------|
|----------------7-----7---------|--------------------0-------0---|

| | | | | | | |
|--------------------------------|--------------------------------|
|--------------------------------|--------------------------------|
|--------------------------------|--------------------------------|
|----0-------0-------0-------0---|----0-------0-------0-------0---|

| | | | | | | |
|--------------------------------|--------------------------------|
|--------------------------------|--------------------------------|
|--------------------------------|--------------------------------|
|----0-------0-------0-------0---|----0-------0-------0-------0---|

| | | | | | | |
|--------------------------------|--------------------------------|
|--------------------------------|--------------------------------|
|--------------------------------|--------------------------------|
|----0-------0-------0-------0---|----------5-----0-------0-1-2-3-|

| | | | | | | |
|--------------------------------|--------------------------------|
|--------------------------------|--------------------------------|
|--------------------------------|--------------------------------|
|3-----2-3-------0-------0-1-2-3-|3-----2-3/--12--0-----0-0-------|

| | | | | | | |
|--------------------------------|--------------------------------|
|--------------------------------|--------------------------------|
|--------------------------------|--------------------------------|
|0-----0-0-0-----0-----0-0-0-----|0-----0-0-------0-----0-0-0-----|

| | | | | | | |
|--------------------------------|--------------------------------|
|--------6-6-7-7-9---------------|9-----------9-------------------|
|----7-7-----------------9---9---|--------9-------5-----------3h5-|
|0---------------------9---------|------9---------------5-5-------|

| | | | | | | |
|--------------------------------|--------------------------------|
|--------------------------------|--------------------------------|
|--------------------------------|--------------------------------|
|----5-----3-----0---------------|----------------5---------------|

| | | | | | | |
|--------------------------------|--------------------------------|
|5/7-----------------------------|--------------------------------|
|--------------------------------|--------------------------------|
|------------------------2-3-----|0-------------------------------|

| | | | | | | |
|--------------------------------|--------------------------------|
|------------------14 bars without bass here----------------------|
|--------------------------------|--------------------------------|
|--------------------------------|--------------------------------|


| | | | | | | |
|--------------------------------|--------------------------------|
|--------------------------------|--------------------------------|
|------------------------------7-|--7-9-7-107---7---7---------6-7-|
|--------------------------------|------------9-------9-9-1010----|

| | | | | | | |
|--------------------------------|--------------------------------|
|--------------------------------|--------------------------------|
|--7-9-7-107---7---7---------6-7-|--7-9-7-107---7---7---------6-7-|
|------------9-------9-9-1010----|------------9-------9-9-1010----|

| | | | | | | |
|--------------------------------|--------------------------------|
|--------------------------------|--------------------------------|
|--7-9-7-107---7---7---------6-7-|--7-9-7-107---7---7---------6-7-|
|------------9-------9-9-1010----|------------9-------9-9-1010----|

| | | | | | | |
|--------------------------------|--------------------------------|
|--------------------------------|--------------------------------|
|--7-9-7-107---7---7---------6-7-|--7-9-7-107---7---7---------6-7-|
|------------9-------9-9-1010----|------------9-------9-9-1010----|

| | | | | (be aware of Eb in this bar)
|--------------------------------|--------------------------------|
|--------------------------------|--------------------------------|
|--7-9-7-107---7---7---------6-7-|--7-9-7-107---6---6---------6-7-|
|------------9-------9-9-1010----|------------9-------9-9-1010----|

| | | | | | | |
|--------------------------------|--------------------------------|
|--------------------------------|--------------------------------|
|--7-9-7-107---7---7---------6-7-|--7-9-7-107---7---7---------6-7-|
|------------9-------9-9-1010----|------------9-------9-9-1010----|

| | | | | | | |
|--------------------------------|--------------------------------|
|--------------------------------|--------------------------------|
|--7-9-7-107---7---7---------6-7-|--7-9-7-107---7---7---------6-7-|
|------------9-------9-9-1010----|------------9-------9-9-1010----|

| | | | | | | |
|--------------------------------|--------------------------------|
|--------------------------------|--------------------------------|
|--7-9-7-107---7---7---------6-6-|7-------------5-7-------------5-|
|------------9-------9-9-1010----|--5---6---7-------5---6---7-----|

| | | |
|--------------------------------|
|--------------------------------|
|7-------------5-7---------------|
|--5---6---7---------------------|


Created with TablEdit http://www.tabledit.com/

Copyrights
Author: ?
Composer: ?
Publisher: ?
More details
Language: English

Reactions

CommonCrawl [Bot]

Follow Muzikum