The Blues Brothers

The Blues Brothers
Rawhide Solo (Guitar tab)

Theme from Rawhide

(Taken from the "blues brothers")



1:48
-------------------------------------------------------1~~~-------
--------------------------------3~~~~~--------3--1h2h3h-----------
--------3~~~~-(*3)----3---1h2h3h--------(*3)----------------(*3)--
--3h4h5h----------------------------------------------------------
------------------------------------------------------------------
------------------------------------------------------------------


2:02
--------------3333-1-3-1------------------------------------------
3---6b-6b-6b-------------3~~~~------------------------------------
---------------------------------3-5b-5b-5b-3-5-3-----------------
-------------------------------5-------------------5~~~-----------
------------------------------------------------------------------
------------------------------------------------------------------


------------------------------------------------------------------
------------------------------------------------------------------
3\7-5-3-5-3~~-3\7-7~~--/3-5-5~~--3-3~~----------------------------
---------------------------------------5-3-0-5~~~~~---------------
------------------------------------------------------------------
------------------------------------------------------------------



blues_sender@yahoo.com

OptimusPrime

Submitted by OptimusPrime at Sun 01 Dec, 2002 8:34 am

Author: ?
Composer: ?
Publisher: ?
Language: English

Reactions

CommonCrawl [Bot]

Follow Muzikum