The Bloodhound Gang

The Bloodhound Gang
Foxtrot (Bass tab)

IT’S GOTTA BE CLOSE!

G--------------------------------------------
D-44-44--4---11-11--1------------------------
A------------------------11-11--1----44-44--4
E--------------------------------------------

G--------------------------------------------
D--44-44--4---11-11--1-----------------------
A-------------------------11-11--1----44-44--
E--------------------------------------------


\"Vulcanize the whoopee stick...\"

G--------------------------------------------
D---444444444---11111111---------------------
A-------------------------11111111---44444444
E--------------------------------------------

G--------------------------------------------
D---444444444---11111111---------------------
A-------------------------11111111---44444444
E--------------------------------------------

G--------------------------------------------
D---444444444---11111111---------------------
A-------------------------11111111---44444444
E--------------------------------------------

G--------------------------------------------
D---444444444---11111111---------------------
A-------------------------11111111---4-------
E--------------------------------------------


\"If I get you in the loop when...\"
G--------------------------------------------
D---------------------44444444---------------
A---2222222222222222------------44444444-----
E--------------------------------------------

G--------------------------------------------
D-------------------11111111-----------------
A-2222222222222222------------44444444-------
E--------------------------------------------

\"Foxtrot Uniform Charlie Kilo\"
G--------------------------------------------
D---444444444---11111111---------------------
A-------------------------11111111---44444444
E--------------------------------------------


G--------------------------------------------
D---444444444---11111111---------------------
A-------------------------11111111---44444444
E--------------------------------------------


G--------------------------------------------
D--44-44--4---11-11--1-----------------------
A-------------------------11-11--1----44-44-4
E--------------------------------------------

G--------------------------------------------
D--44-44--4---11-11--1-----------------------
A-------------------------11-11--1----44-44--
E--------------------------------------------


\"Marinate the nether rod...\"

G--------------------------------------------
D---444444444---11111111---------------------
A-------------------------11111111---44444444
E--------------------------------------------

G--------------------------------------------
D---444444444---11111111---------------------
A-------------------------11111111---44444444
E--------------------------------------------

G--------------------------------------------
D---444444444---11111111---------------------
A-------------------------11111111---44444444
E--------------------------------------------

G--------------------------------------------
D---444444444---11111111---------------------
A-------------------------11111111---4-------
E--------------------------------------------

\"If i get you in the loop when...\"
G--------------------------------------------
D---------------------44444444---------------
A---2222222222222222------------44444444-----
E--------------------------------------------

G--------------------------------------------
D-------------------11111111-----------------
A-2222222222222222------------44444444-------
E--------------------------------------------

\"Foxtrot Uniform Charlie Kilo.\"
G--------------------------------------------
D---444444444---11111111---------------------
A-------------------------11111111---44444444
E--------------------------------------------

G--------------------------------------------
D---444444444---11111111---------------------
A-------------------------11111111---44444444
E--------------------------------------------

G--------------------------------------------
D---444444444---11111111---------------------
A-------------------------11111111---44444444
E--------------------------------------------

G--------------------------------------------
D---444444444---11111111---------------------
A-------------------------11111111---44444444
E--------------------------------------------

\"Put the you-know-what in the you-know-where.\"
G--------------------------------------------
D---444444444---11111111---------------------
A-------------------------11111111---44444444
E--------------------------------------------

G------------------------------------------------
D--444444444---11111111----------------------4~--
A------------------------11111111---44444444-----
E------------------------------------------------

\"Pronto\"
G-------
D---4~--
A-------
E-------

The_used192

Submitted by The_used192 at Mon 01 May, 2006 8:13 pm

Author: ?
Composer: ?
Publisher: ?
Language: English

Reactions

CommonCrawl [Bot]

Follow Muzikum