The Bloodhound Gang

The Bloodhound Gang
The Ballad Of Chasey Lain Ver 5 (Bass tab)

Bloodhound Gang
The Ballad Of Chasey Lain
Hooray For Boobies
Tabbed by MattW


Intro
G|-----------------------------------------------------------------|
D|--------2--2-2---------------------------2--2-2------------------|
A|4--4-4-2-------20--0-0-2-------2-4--4-4-2-------20--0-0-2--------|
E|------------------------4--4-4---------------------------4-------|

Verse Part I
G|-----------------------------------------------------------------------|
D|------------------------------------------------------------77------66-|
A|-44444444----------77777777--------44444444-77777777---4477-----3366---|
E|----------55555555---------44444444------------------55-------44-------|

Chorus Part I
G|------------------------------------------------------------------|
D|------------------------------------------------------------------|
A|-44444444--------77777777--------44444444---------4--4-4-7--------|
E|---------55555555--------44444444---------4---------------4-------|

Verse Part I
G|-----------------------------------------------------------------------|
D|------------------------------------------------------------77------66-|
A|-44444444----------77777777--------44444444-77777777---4477-----3366---|
E|----------55555555---------44444444------------------55-------44-------|

Chorus Part I
G|------------------------------------------------------------------|
D|------------------------------------------------------------------|
A|-44444444--------77777777--------44444444---------4--4-4-7--------|
E|---------55555555--------44444444---------4---------------4-------|

Verse Part I
G|-----------------------------------------------------------------------|
D|------------------------------------------------------------77------66-|
A|-44444444----------77777777--------44444444-77777777---4477-----3366---|
E|----------55555555---------44444444------------------55-------44-------|

Chorus Part II
G|----------------------------------------|
D|----------------------------------------|
A|----------22222222----------------------|
E|-00000000----------00000000----22222222-|

Verse Part II
G|----------------------------------|
D|----------------------------------|
A|-22222222—-22222222—-44444444--4--|
E|----------------------------------|

Chorus Part II
G|----------------------------------------|
D|----------------------------------------|
A|----------22222222----------------------|
E|-00000000----------00000000----22222222-|

Verse Part II
G|----------------------------------|
D|----------------------------------|
A|-22222222—-22222222—-44444444--4--|
E|----------------------------------|

Chorus Part II
G|----------------------------------------|
D|----------------------------------------|
A|----------22222222----------------------|
E|-00000000----------00000000----22222222-|

Outro
G|-----------------------------------------------------------------|
D|--------2--2-2---------------------------2--2-2------------------|
A|4--4-4-2-------20--0-0-2-------2-4--4-4-2-------20--0-0-2--------|
E|------------------------4--4-4---------------------------4-------|

OptimusPrime

Submitted by OptimusPrime at Thu 14 Aug, 2003 4:15 pm

Author: ?
Composer: ?
Publisher: ?
Language: English

Reactions

CommonCrawl [Bot]

Follow Muzikum