The Bloodhound Gang

The Bloodhound Gang
The Ballad Of Chasey Lain Ver 4 (Guitar tab)

Song: The Ballad of Chasey Lain
Artist: Bloodhound Gang
Tabber: ChAdDyChAdWiCk
Email: simplyskate@hotmail.com
Website: http://www.simplyskate.co.uk
Tuning: Standard (EADGBE)

Intro/Outro:
E----------------------------------------------------------
B----------------------------------------------------------
G----6--x--66--4---9--x--99--4-------------4-------------4-
D----6--x--66--4---7--x--77--4---7--x--77--4---6--x--66--4-
A----4--x--44--2---7--x--77--2---7--x--77--2---6--x--66--2-
E--------------------------------5--x--55------4--x--44----

E----------------------------------------------------------
B----------------------------------------------------------
G----6--x--66--4---9--x--99--4-------------4---------------
D----6--x--66--4---7--x--77--4---7--x--77--4---6-----------
A----4--x--44--2---7--x--77--2---7--x--77--2---6-----------
E--------------------------------5--x--55------4-----------

Verse: PALM MUTED
E----------------------------------------------------------
B----------------------------------------------------------
G----66666666--99999999------------------------------------x3
D----66666666--77777777--77777777--66666666----------------
A----44444444--77777777--77777777--66666666----------------
E------------------------55555555--44444444----------------

E----------------------------------------------------------
B----------------------------------------------------------
G----66666666-----------------------6--x--66--4------------
D----44444444---2-------------------6--x--66--4--2---------
A----44444444---2-------------------4--x--44--2--2---------
E---------------0--------------------------------0---------

Bridge:
E----------------------------------------------------------
B----------------------------------------------------------
G----4444444444444444--666666666---------------------------
D----4444444444444444--444444444---------------------------
A----2222222222222222--444444444---------------------------
E----------------------------------------------------------

E----------------------------------------------------------
B----------------------------------------------------------
G----------------------44444444----------------------------
D----2222222222222222--44444444--44444444------------------
A----2222222222222222--22222222--44444444------------------
E----0000000000000000------------22222222------------------

E----------------------------------------------------------
B----------------------------------------------------------
G----4444444444444444--666666666---------------------------
D----4444444444444444--444444444---------------------------
A----2222222222222222--444444444---------------------------
E----------------------------------------------------------

E----------------------------------------------------------
B----------------------------------------------------------
G----------------------44444444----------------------------
D----2222222222222222--44444444--4-------------------------
A----2222222222222222--22222222--4-------------------------
E----0000000000000000------------2-------------------------

Order:
Intro
Verse
Verse
Verse
Bridge
Outro

Lyrics:
Dear Chasey Lain
I wrote to explain
I'm your biggest fan
I just wanted to ask
Could I eat your ass?
Write back as soon as you can

You've had a lotta dick
Had a lotta dick
I've had a lotta time
Had a lotta time
You've had a lotta dick Chasey
But you ain't had mine

Dear Chasey Lain
I wrote to complain
Ya never wrote me back
How could I ever eat
Your ass when ya treat
Your biggest fan like that?

You've had a lotta dick
Had a lotta dick
I've had a lotta time
Had a lotta time
You've had a lotta dick Chasey
But you ain't had mine

Dear Chasey Lain
I wrote to constrain
This letter is my last
As your biggest fan
I must demand
You let me eat your ass

You've had a lotta dick
Had a lotta dick
I've had a lotta time
Had a lotta time
You've had a lotta dick Chasey
But you ain't had mine

P.S.
Mom and Dad this is Chasey
Chasey this is my mom and dad
Now show �em them titties
Now show �em them titties
P.S.
Mom and Dad this is Chasey
Chasey this is my mom and dad
Now show �em them titties
Now show �em them titties

OptimusPrime

Submitted by OptimusPrime at Thu 14 Aug, 2003 4:15 pm

Author: ?
Composer: ?
Publisher: ?
Language: English

Reactions

CommonCrawl [Bot]

Follow Muzikum