The Bloodhound Gang

The Bloodhound Gang
Kiss Me Where It Smells Funny Ver 5 (Bass tab)

Kiss Me Where It Smells Funny

Bloodhound Gang

One Feirce Beer Coaster

Tab By James Copley (jcopley18@hotmail.com)

Standard tuning



Intro (riff 1)

G|---------------------------------|

D|---------------------------------|

A|-------------------------5-------|

E|-0-5-6-7-0-5-6-7-0-5-6-7---7-6-5-|



riff 2

G|--------------------------------------------------------------|

D|--------------------------------------------------------------|

A|--------------------------------------------------------------|

E|-0-0-0-0-0-0-0-0-0-0-0-0-0-0-3-3--0-5-6-7-0-5-6-7-0-5-6-7-3-3-|



verse (riff 3)

G|---------------------------------------------------------

D|---------------------------------------------------------

A|---------------------------2-0-0-0-0-0-0-0-0-0-0-0-0---2-

E|-0-0-0-0-0-0-0-0-0-0-0-0-3---------------------------3---



G|--------------------------------------------------------------|

D|--------------------------------------------------------------|

A|-0-0-0-0-0-0-0-0-0-0-0-0-2-0----------------------------------|

E|-----------------------------3-2--0-5-6-7-0-5-6-7-0-5-6-7-3-3-|

repeat verse, but don't play the last 2 notes on the second time



Bridge

G|------------------------------|

G|------------------------------|

A|--------------------------5---|

E|-0-0--0-3-3--3-5-5--5-7-7---7-|

OptimusPrime

Submitted by OptimusPrime at Thu 14 Aug, 2003 4:15 pm

Author: ?
Composer: ?
Publisher: ?
Language: English

Reactions

CommonCrawl [Bot]

Follow Muzikum