The Bloodhound Gang

The Bloodhound Gang
I Wish I Was Queer So I Could Get Chicks Ver 3 (Guitar tab)

i wish i was queer so i could get chicks
Bloodhound gang
guitar



verse 1

d|-3-2-2-2-2-2-2-2-2-4-4-4-4-4-4-4-4-5-5-5-5-5-5-5-5-9-4-2-2-2-2-2-2-2-2-4-4-4-4-4-4-4-4--|
a|-1-0-0-0-0-0-0-0-0-2-2-2-2-2-2-2-2-3-3-3-3-3-3-3-3-7-2-0-0-0-0-0-0-0-0-2-2-2-2-2-2-2-2--|
E|----------------------------------------------------------------------------------------|

d|-6-6-6-6-6-6-6-6-4-2-2-2-2-2-2-2-2-4-4-4-4-4-4-4-4-9-9-9-9-9-9-9-9-8-6-2-2-2-2-2-2-2-2-4|stop
a|-4-4-4-4-4-4-4-4-2-0-0-0-0-0-0-0-0-2-2-2-2-2-2-2-2-7-7-7-7-7-7-7-7-6-4-0-0-0-0-0-0-0-0-2|stop
E|----------------------------------------------------------------------------------------|stop

chorus

d|-9-x16-------4-x16------9-x16-----4-x16---2---------------------------------------------|
a|-7-x16-------2-x16------7-x16-----2-x16---0---------------------------------------------|
E|----------------------------------------------------------------------------------------|

verse 2

d|-2-2-2-2-2-2-2-2-4-4-4-4-4-4-4-4-6-6-6-6-6-6-6-6-9-4-2-2-2-2-2-2-2-2-4-4-4-4-4-4-4-4----|
a|-0-0-0-0-0-0-0-0-2-2-2-2-2-2-2-2-4-4-4-4-4-4-4-4-7-2-0-0-0-0-0-0-0-0-2-2-2-2-2-2-2-2----|
E|----------------------------------------------------------------------------------------|

d|-6-4-2-2-2-2-2-2-2-2-4-4-4-4-4-4-4-4-9-9-9-9-9-9-9-9-8-6-6-6-6-6-6-6-6-2-2-2-2-2-2-2-2--|
a|-4-2-0-0-0-0-0-0-0-0-2-2-2-2-2-2-2-2-7-7-7-7-7-7-7-7-6-4-4-4-4-4-4-4-4-0-0-0-0-0-0-0-0--|
E|----------------------------------------------------------------------------------------|

d|-4-4-4-4-4-4-4-4-6-6-6-6-6-6-6-6-6-6-6-6-6-6-6-6----------------------------------------|
a|-2-2-2-2-2-2-2-2-4-4-4-4-4-4-4-4-4-4-4-4-4-4-4-4----------------------------------------|
E|----------------------------------------------------------------------------------------|

verse 3
pm----------------------------------------------
d|---2-2-2-2-2-2-2-2-4-4-4-4-4-4-4-4-5-5-5-5-5-5-5-5-9-4-2-2-2-2-2-2-2-2-4-4-4-4-4-4-4-4--|
a|---0-0-0-0-0-0-0-0-2-2-2-2-2-2-2-2-3-3-3-3-3-3-3-3-7-2-0-0-0-0-0-0-0-0-2-2-2-2-2-2-2-2--|
E|----------------------------------------------------------------------------------------|

d|-6-6-6-6-6-6-6-6-4-2-2-2-2-2-2-2-2-4-4-4-4-4-4-4-4-9-9-9-9-9-9-9-9-8-6-2-2-2-2-2-2-2-2-4|stop
a|-4-4-4-4-4-4-4-4-2-0-0-0-0-0-0-0-0-2-2-2-2-2-2-2-2-7-7-7-7-7-7-7-7-6-4-0-0-0-0-0-0-0-0-2|stop
E|----------------------------------------------------------------------------------------|stop


chorus

d|-9-x16-------4-x16------9-x16-----4-x16---2---------------------------------------------|
a|-7-x16-------2-x16------7-x16-----2-x16---0---------------------------------------------|
E|----------------------------------------------------------------------------------------|


verse 4
pm----------------------------------------------
d|---2-2-2-2-2-2-2-2-4-4-4-4-4-4-4-4-5-5-5-5-5-5-5-5-9-4-2-2-2-2-2-2-2-2-4-4-4-4-4-4-4-4--|
a|---0-0-0-0-0-0-0-0-2-2-2-2-2-2-2-2-3-3-3-3-3-3-3-3-7-2-0-0-0-0-0-0-0-0-2-2-2-2-2-2-2-2--|
E|----------------------------------------------------------------------------------------|

d|-6-6-6-6-6-6-6-6-4-2-2-2-2-2-2-2-2-4-4-4-4-4-4-4-4-9-9-9-9-9-9-9-9-8-6-2-2-2-2-2-2-2-2-4|stop
a|-4-4-4-4-4-4-4-4-2-0-0-0-0-0-0-0-0-2-2-2-2-2-2-2-2-7-7-7-7-7-7-7-7-6-4-0-0-0-0-0-0-0-0-2|stop
E|----------------------------------------------------------------------------------------|stop

bridge

d|-9-9-9-9-9-9-9-9-9-9-9-9-6-6-6-6-6-6-6-6-6-6-6-6-6-4-2-2-2-2-2-2-2-2-2-2-2-2-2-3--------|
a|-7-7-7-7-7-7-7-7-7-7-7-7-4-4-4-4-4-4-4-4-4-4-4-4-4-2-0-0-0-0-0-0-0-0-0-0-0-0-0-1--------|
E|----------------------------------------------------------------------------------------|

d|-4-4-4-4-4-4-4-4-4-4-4-4-4-2-6-8--------------------------------------------------------|
a|-2-2-2-2-2-2-2-2-2-2-2-2-2-0-4-6--------------------------------------------------------|
E|----------------------------------------------------------------------------------------|

d|-9-9-9-9-9-9-9-9-9-9-9-9-6-6-6-6-6-6-6-6-6-6-6-6-6-4-2-2-2-2-2-2-2-2-2-2-2-2-2-3--------|
a|-7-7-7-7-7-7-7-7-7-7-7-7-4-4-4-4-4-4-4-4-4-4-4-4-4-2-0-0-0-0-0-0-0-0-0-0-0-0-0-1--------|
E|----------------------------------------------------------------------------------------|

d|-4-4-4-4-4-4-4-4-4-4-4-4-4-2-6-8--------------------------------------------------------|
a|-2-2-2-2-2-2-2-2-2-2-2-2-2-0-4-6--------------------------------------------------------|
E|----------------------------------------------------------------------------------------|

verse 5
pm----------------------------------------------
d|---2-2-2-2-2-2-2-2-4-4-4-4-4-4-4-4-5-5-5-5-5-5-5-5-9-4-2-2-2-2-2-2-2-2-4-4-4-4-4-4-4-4--|
a|---0-0-0-0-0-0-0-0-2-2-2-2-2-2-2-2-3-3-3-3-3-3-3-3-7-2-0-0-0-0-0-0-0-0-2-2-2-2-2-2-2-2--|
E|----------------------------------------------------------------------------------------|

d|-6-6-6-6-6-6-6-6-4-2-2-2-2-2-2-2-2-4-4-4-4-4-4-4-4-9-9-9-9-9-9-9-9-8-6-2-2-2-2-2-2-2-2-4|stop
a|-4-4-4-4-4-4-4-4-2-0-0-0-0-0-0-0-0-2-2-2-2-2-2-2-2-7-7-7-7-7-7-7-7-6-4-0-0-0-0-0-0-0-0-2|stop
E|----------------------------------------------------------------------------------------|stop

outro

d|-6-x16--4-x16--6-x16--9-x8--6-x16--4-x16--6-x16--9-x8--4-x16--6-x16--4-x16--6-x16--9-x8-|
a|-4-x16--2-x16--4-x16--7-x8--4-x16--2-x16--4-x16--7-x8--2-x16--4-x16--2-x16--4-x16--7-x8-|
E|----------------------------------------------------------------------------------------|

d|-4-x8--6-x8--4-x16--6-x16--9-x8--4-x8--6------------------------------------------------|
a|-2-x8--4-x8--2-x16--4-x16--7-x8--2-x8--4------------------------------------------------|
E|----------------------------------------------------------------------------------------|

OptimusPrime

Submitted by OptimusPrime at Thu 14 Aug, 2003 4:15 pm

Author: ?
Composer: ?
Publisher: ?
Language: English

Reactions

CommonCrawl [Bot]

Follow Muzikum