The Bloodhound Gang

The Bloodhound Gang
Going Nowhere Slow Ver 2 (Guitar tab)

The Bloodhound Gang-Going Nowhere Slow
From: One Fierce Beer Coaster
-----------------------------------------------------------
Transcribed by J.E.






Standard Tuning
---------------------

Rhythm Figure 1

E5 B5 G#5/A5 G#5/A5 F#5
e|----------------|---------------|---------------|-----------------|
B|----------------|---------------|---------------|-----------------|
G|----------------|---------------|---------------|-----------------|
D|2-2-2-2-2-2-2-2-|9-9-9-9-9-9-9-9|6/7-7-7-6/7-7-7|6/7\6-4--4-4-4---|
A|2-2-2-2-2-2-2-2-|9-9-9-9-9-9-9-9|6/7-7-7-6/7-7-7|6/7\6-4--4-4-4---|
E|0-0-0-0-0-0-0-0-|7-7-7-7-7-7-7-7|4/5-5-5-4/5-5-5|4/5\4-2--2-2-2---|



Rhythm Figure 2: slight Palm mute on most of the chords, until the last measure, last
time through

E5 B5 G#5/A5 G#5/A5 F#5
e|-----------------|-----------------|------------------|----------------|
B|-----------------|-----------------|------------------|----------------|
G|-----------------|-----------------|------------------|----------------|
D|2-2-2-2222-2-2-22|9-9-9-9999-9-9-99|6/7-7-xx-6/77-7-xx|6/77-7-4--4-4-4-|
A|2-2-2-2222-2-2-22|9-9-9-9999-9-9-99|6/7-7-xx-6/77-7-xx|6/77-7-4--4-4-4-|
E|0-0-0-0000-0-0-00|7-7-7-7777-7-7-77|4/5-5-xx-4/55-5-xx|4/55-5-2--2-2-2-|



Rhythm Figure 3

A5 C#5 B5
e|------------| It sounds like there is a slight bend on the B5
B|------------|
G|------------|
D|7--11--9----|
A|7--11--9----|
E|5---9--7----|

Rhythm Figure 4

F#5 A5
e|--------------|--------------|--------------|------------|--------------------------------|
B|--------------|--------------|--------------|------------|--------------------------------|
G|--------------|--------------|--------------|--------4---|--------------------------------|
D|4--4-44-44-4--|7--7-77-77-7--|----2------2--|----2p0-4---|--------------------------------|
A|4--4-44-44-4--|7--7-77-77-7--|3-4----3-4----|3-4-----2---|--------------------------------|
E|2--2-22-22-2--|5--5-55-55-5--|--------------|------------|--------------------------------|


Rhythm Figure 5

B5 A5 G#5 A5 F#5 E5
e|--------|---------|-------|---------|
B|--------|---------|-------|---------|
G|--------|---------|-------|---------|
D|9-------|9---9-9-9|7-----6|7---4-2--|
A|9-------|9---9-9-9|7-----6|7---4-2--|
E|7-------|7---7-7-7|5-----4|5---2-0--|


Intro: Figure 1
Verse: Figure 2
Pre-chorus: ("Bloodhound Noise...") Figure 3
Chorus: Figure 1
Bridge: Figure 4
Outro: ("Rock On"): Figure 5




Requests? Mail to: NubioSlepp@Netscape.net

OptimusPrime

Submitted by OptimusPrime at Thu 14 Aug, 2003 4:15 pm

Author: ?
Composer: ?
Publisher: ?
Language: English

Reactions

CommonCrawl [Bot]

Follow Muzikum