The Bloodhound Gang

The Bloodhound Gang
I Hope You Die Ver 4 (Guitar tab)

------------------------------------------------
------------------------------------------------
------------------------------------------------
---3--3-3--4--4-4--2--2-2--6--6-6---------------------------
-11-11-1---------33-33-3----------------------------------
---------22-22-2---------44-44-4--------------------------

------------------------------------------------
-3-4-5-6-8-9-10-11-12-13------------------------
------------------------------------------------
------------------------------------------------
------------------------------------------------
------------------------------------------------

------------------------------------------------
-------------------6-6-6-676--------------------
----------------------------8-------------------
------------------------------------------------
-3333333344444444-------------------------------

OptimusPrime

Submitted by OptimusPrime at Sun 01 Dec, 2002 8:34 am

Author: ?
Composer: ?
Publisher: ?

Reactions

CommonCrawl [Bot]

Follow Muzikum