The Bloodhound Gang

The Bloodhound Gang
I Wish I Was Queer So I Could Get Chicks (Guitar tab)

I Wish I Was Queer So I Could Get Chicks by Bloodhound Gang. Album One Fierce Beer Coaster
This is Very power and one of better Bloodhound Gang's song! So it is not very hard to play, just
listen song to take right struming!
Any questions coments send me to Briets@email.ru.
P-M=Palm-Mute.
()=play only first time
*=play X8 with palm-mute
# Main riff1 # # Main riff2 # # Main riff3 # []= play only second time
E----------------------------| > E------------------------| > E-----------------------------------------|
B-------*--*--*--------------| > B---*--*--*--*-----------| > B---*--*-------------------------------*--|
G--(3)-2--4--6--6-6-6-9-4----| > G--2--4--6--6--4-4-4-4---| > G--2--4--9-9-9-9-8-6-6-6-6-2-2-2-2-4-[6]--|
D--(3)-2--4--6--6-6-6-9-4----| > D--2--4--6--6--4-4-4-4---| > D--2--4--9-9-9-9-8-6-6-6-6-2-2-2-2-4-[6]--|
A--(1)-0--2--4--4-4-4-7-2----| > A--0--2--4--4--2-2-2-2---| > A--0--2--7-7-7-7-6-4-4-4-4-0-0-0-0-2-[4]--|
E----------------------------| > E--------------\-P-M-/---| > E-----------------------------------------|
>
# Chorus # play X2
E---------------------------------------------|
B---------------------------------------------|
G--9-9-9-9-9-9-9-9-9-9-9-4-4-4-4-4-4-4-4-4-4--|
D--9-9-9-9-9-9-9-9-9-9-9-4-4-4-4-4-4-4-4-4-4--|
A--7-7-7-7-7-7-7-7-7-7-7-2-2-2-2-2-2-2-2-2-2--|
E---------------------------------------------|
>
Play # Main riff1 #, # Main riff2 #, # Main riff3 #, # Chorus # X2, # Main riffs123 #, # Chorus # X2
> \______________________X2____________________/
>
# Bridge # &=play X8-10
E-----------------------------------------------------------------------------|
B---&-&--------&------------------------&-&--------&--------------------------|
G--9-6--6-4-2-2--2-3-4-4-4-4-4-2-6-8---9-6--6-4-2-2--2-3-4-4-4-4--4--2--6--8--|
D--9-6--6-4-2-2--2-3-4-4-4-4-4-2-6-8---9-6--6-4-2-2--2-3-4-4-4-4--4--2--6--8--|
A--7-4--4-2-0-0--0-1-2-2-2-2-2-0-4-6---7-4--4-2-0-0--0-1-2-2-2-2--2--0--4--6--|
E-----------------------------------------------------------------------------|
>
Play # Main riff1 #, # Main riff2 #, # Main riff3 #
>
# Bridge2 # play X2 * = play X8-10
E----------------------------------------|
B---*--*--*------------------------------|
G--6--4--6--9-9-9-9-9-9-9-4-4-4-4-4-4-4--|
D--6--4--6--9-9-9-9-9-9-9-4-4-4-4-4-4-4--|
A--4--2--4--7-7-7-7-7-7-7-2-2-2-2-2-2-2--|
E-----------\-----------P-M-----------/--|
>
Outro - play # Bridge2 # without P-M X3 (last chord x466xx)!!!

Tabbed by Briets(Andrei)

OptimusPrime

Submitted by OptimusPrime at Sun 01 Dec, 2002 8:34 am

Author: ?
Composer: ?
Publisher: ?
Language: English

Reactions

CommonCrawl [Bot]

Follow Muzikum