The Bloodhound Gang

The Bloodhound Gang
Ballad Of Chasey Lain (Guitar tab)

song: The ballad of Chasey Lain
Artist: The Bloodhound Gang
Album:Hooray for Boobies
Tabbed by: Russell Legder

This is a fairly simple song i think i got it right.

intro- also played after the chorus
e--------------------------------------------------------------------
b--------------------------------------------------------------------
g---6-x-6-6---xx--9-x--9-9-------------------------------------------
d---6-x-6-6---xx--9-x--9-9-----xx-7-x-7-7-xx-6-x-6-6-----------------
a---4-x-4-4---xx--7-x--7-7-----xx-7-x-7-7-xx-6-x-6-6-----------------
e------------------------------xx-5-x-5-5-xx-4-x-4-4-----------------
x2
verse
e--------------------------------------------------------------------------------
b--------------------------------------------------------------------------------
g----6-6-6-6-6-6-6-6-----9-9-9-9-9-9-9-9-----------------------------------------
d----6-6-6-6-6-6-6-6-----9-9-9-9-9-9-9-9-----7-7-7-7-7-7-7-7-----6-6-6-6-6-6-6-6-
a----4-4-4-4-4-4-4-4-----7-7-7-7-7-7-7-7-----7-7-7-7-7-7-7-7-----6-6-6-6-6-6-6-6-
e--------------------------------------------5-5-5-5-5-5-5-5-----4-4-4-4-4-4-4-4-
x2

OptimusPrime

Submitted by OptimusPrime at Sun 01 Dec, 2002 8:34 am

Author: ?
Composer: ?
Publisher: ?
Language: English

Reactions

CommonCrawl [Bot]

Follow Muzikum