The Bloodhound Gang

The Bloodhound Gang
Hell Yeah (Guitar tab)

Tabbed by: Geneva Kaiser
Artist: Bloodhound Gang
Song: Hell Yeah
Album: Hooray for Boobies


verse/chorus

e---------------------------------------------
b---------------------------------------------
g------------------4-4-4-4--7-7-7-7-----------
d-5-5-5-5-5-5-5-5--4-4-4-4--7-7-7-7-----------
a-5-5-5-5-5-5-5-5--2-2-2-2--5-5-5-5-----------
e-3-3-3-3-3-3-3-3-----------------------------


pre-chorus

e---------------------------------------------------
b---------------------------------------------------
g-------------------------------4-------------------
d-5-----------------------------4-----------7-------
a-5-----------------------------2-----------7-------
e-3-----------------------------------------5-------
If I were God that\'s what I\'d do, Heavens no......


Bridge (palm muted)

e----------------------------
b----------------------------
g--5-------------------------
d--5-ect-5-----7-----9-------
a--3-----5-ect-7-ect-9-ect---
e--------3-----5-----7-------
listen for chord change


order:

4x chorus
4x verse (palm muted)
3x verse
1x pre-chorus
4x chorus
4x verse (palm muted)
4x verse
4x chorus

then play bridge till end

e-mail me with any comments or improvements at gulpngidge@aol.com

OptimusPrime

Submitted by OptimusPrime at Sun 01 Dec, 2002 8:34 am

Author: ?
Composer: ?
Publisher: ?
Language: English

Reactions

CommonCrawl [Bot]

Follow Muzikum