The Bloodhound Gang

The Bloodhound Gang
Fire Water Burn (Guitar tab)

From: "Ben Fargin"
From: Seaford19@aol.com
Date: Mon, 17 Sep 2001 12:08:16 EDT
Subject: b/bloodhound_gang/fire_water_burn.crd

This is an interpretation of the song " Fire Water Burn" by
Bloodhound Gang and it is a creation of my own work.
There are a lot of postings for this tab on the web and at
Olga but none of them are complete or correct. This
tab should be 100% correct.

Submitted by Matthew Seaford
September 1, 2001 (10:10 am)
Bloodhound Gang: Fire Water Burn
Geffen Records
Seaford19@aol.com =


StringsChords

E ---3----------------2---------------------------
B ---------------------3---------1----------------
G ---------------------2--------------------------
D -------------2-----------------2--------5------
A ---2--------2-----------------3--------5------
E ---3------------------------------------3-------

G Em D C=



E----------------------------------------------------------
B ----------------------------------------------------------
G ----------------------------------------------------------
D ---5-------9-------2-------4---------7-------10------
A ---5-------9-------2-------4---------7-------10------
E ---3-------7-------0-------2---------5--------8-------

G5 B5 E5 F#5 A5 C5

* Listen to song for strumming style, speed, et cetera.
( / slide )

Acoustic

G, Em repeat (strum top 3 strings down)
(then strum bottom 2 up)
D, C end of intro (strike C hard and then mute at end)

Electric with heavy overdrive (power chords)

G5/B5, E5 repeat, hold last E5 before acoustic starts

Acoustic

G, Em
D,C end of bridge (strum top few strings only)

Electric

-----------------------------------------
-----------------------------------------
---------------------7------------------
--9-------7--------7--------7---------
--9-------7--------5--------7---------

OptimusPrime

Submitted by OptimusPrime at Wed 06 Feb, 2002 6:20 pm

Author: ?
Composer: ?
Publisher: ?
Language: English

Reactions

CommonCrawl [Bot]

Follow Muzikum