Dimmu Borgir
Raabjørn Speiler Draugheimens Skodde (Guitar tab)

Dimmu Borgir - Raabjorn Speiler Draugheimens Skodde

Standard E Tuning

Intro Clean with harp plucking underneath. Only play the first low E once.
e------------------------------------------------------|
B------------------------------------------------------|
G*-------0-----0-----0-----0-----0-----0-----0------0-*|
D*-----9-----9-----9-----9---4-----4-----4-----4------*|
A----7-----7-----7-----7-------5-----5-----5-----5-----|
E--0---------------------------------------------------|

Riff 2 Distortion, Guitar two plays this while guitar one plays the intro with distortion.
e-------------|
B-------------|
G*-------(4)-*|
D*-(2)---(4)-*|
A--(2)---(2)--|
E--(0)--------|

Riff 3
e-----------------------------------------|
B-----------------------------------------|
G*-4--4-4-------------4--4-4-------------*|
D*-4--4-4-0-5--5-5----4--4-4-0-5-5---4-4-*|
A--2--2-2---5--5-5-0--2--2-2---5-5-4-4-4--|
E-----------3--3-3-------------3-3---2-2--|

Riff 4
e---------------------------------|
B---------------------------------|
G*-2---/10--10-9--2---/10-9-7--9-*|
D*-2---/10--10-9--2---/10-9-7--9-*|
A--0---/8---8--7--0---/8--7-5--7--|
E---------------------------------|

Riff 5 Verse [1] [2]
e-----------------------------------------------------|------------|
B-----------------------------------------------------|------------|
G*-2-------------------------------------------------*|-----------*|
D*-2-----3-----2-----5--7--9-----10-----9-------10---*|-----12----*|
A--0-000---000---000-3--5--7-777----777---777-8----8--|--10----10--|
E-----------------------------------------------------|------------|
*** *** *** *** *** ***

Riff 6
e-------------------------------------------------------------------|
B-------------------------------------------------------------------|
G*-2-2-2-2---------5-5-5-5-4-4-4-4-2-2-2-2---------5-5-5-5---------*|
D*-2-2-2-2-2-2-2-2-5-5-5-5-5-5-5-5-2-2-2-2-2-2-2-2-5-5-5-5-5-5-5-5-*|
A--0-0-0-0-2-2-2-2-3-3-3-3-2-2-2-2-0-0-0-0-2-2-2-2-3-3-3-3-5-5-5-5--|
E----------0-0-0-0-------------------------0-0-0-0---------3-3-3-3--|

Riff 6 Alternate
e---------------------------------------------------------------|
B---------------------------------------------------------------|
G*-2-2-2---------5-5-5-5-4-4-4-4-2-2-2---------5-5-5-5---------*|
D*-2-2-2-2-2-2-2-5-5-5-5-5-5-5-5-2-2-2-2-2-2-2-5-5-5-5-5-5-5-5-*|
A--0-0-0-2-2-2-2-3-3-3-3-2-2-2-2-0-0-0-2-2-2-2-3-3-3-3-5-5-5-5--|
E--------0-0-0-0-----------------------0-0-0-0---------3-3-3-3--|
* * * * * * * * * * * * * *

Riff 5

Riff 6

Riff 6 Alternate

Riff 7 Repeat until end. Guitar 2 plays intro clean underneath after 2 measures.
e---------------------------------------|
B---------------------------------------|
G*------2--5---------------5--2------0-*|
D*--2---2--5-(Guitar1)-2---5--2----4---*|
A---2---0--3--3-2-0-2--2---3--0--2------|
E---0------------------0----------------|

Copyrights
Author: ?
Composer: ?
Publisher: ?
More details
Language: English

Reactions

CommonCrawl [Bot]

Follow Muzikum