Dimmu Borgir
Raabjorn Speiler Draugheimens Skodde (Bass tab)

Song: Raabjorn Speiler Draugheimens Skodde
Band: Dimmu Borgir
Album: Godless Savage Garden


Strings: E, A, D, G



Intro

Part 1: Start together with guitars.
G |---------------------------------|
D |---------------------------------|
A |--7---7---7---7---2---2---2---2--|
E |---------------------------------|



Part 2: Play this when drums fade in:
G |----(9)---(9)--------(4)---(4)------|
D |------------------------------------|
A |--7-----7-----7-7--2-----2-----2-2--|
E |------------------------------------|



Part 3: Play before Verse 1
G |-----------|
D |-----------|
A |--22222-2--|
E |-----------|


Verse 1
G |----------------------------------------|
D |----------------------------------------|
A |--2--2--5-------------2--2--5---4-------|
E |----------3--3--2-3----------3----2--3--|


Verse 2
G |-----------------------------------------|
D |------------3-3-p2-2------------3-2-0-2--|
A |--0--0--0-0-----------0--0--0-0----------|
E |-----------------------------------------|


Interlude
G |-------------------|
D |-------------------|
A |----------3--5--7--|
E |--5----5-----------|


Verse 3
G |--------------------------------------------|
D |-----------------------7--7-7--7-7--7-7--7--|
A |--5--5-5--5-5--5-5--5-----------------------|
E |--------------------------------------------|


Verse 4
G |--------------------------|
D |--------------------------|
A |--------------------------|
E |--5----5-5----5-5----5-5--|


Verse 5
G |-----------------------------------|
D |-----------------------------------|
A |------------------3-3-3-3-2-2-2-2--|
E |--5-5-5-5-0-0-0-0------------------|


Verse 6
G |---------------------------------------|
D |---------------------------------------|
A |----------------3---------------3---2--|
E |--0--0--0-0--5-------0--0--0-0----5----|



Structure:

Intro Part 1: 4x
Intro Part 2: 4x
Intro Part 3: 1x
Verse 1: 2x
Verse 2: 2x
Interlude: 1x
Verse 3: 4x
Verse 4: 1x
Verse 5: 4x
Verse 6: play till the end



Tabbed by: Alex Matri (alex.matri@directbox.com) - in dedication to my girlfriend- I love YOU!!!

Copyrights
Author: ?
Composer: ?
Publisher: ?
More details
Language: English

Reactions

CommonCrawl [Bot]

Follow Muzikum