Dimmu Borgir
Raabjorn Speiler Draugheims Skodde (Guitar tab)

DIMMU BORGIR -

Tabbed: Esa Mikkola (Finland)
esamikkola@hotmail.com

Palm-muted notes are marked with these ......



Riff 1

|--------------|
|--------------|
|--------4-----|
|-2------4-----|
|-2------2-----|
|-0------------|

Riff 2

|-------------------------------------------|
|-------------------------------------------|
|-------------------------------------------|
|-4--4-4-7------------4--4-4-7--------------|
|-2--2-2-5--5--5-5-5--2--2-2-5--5-5-5-4-4-4-|
|-----------3--3-3-3------------3-3-3-2-2-2-|

Riff 3

|------------------------------------------|
|------------------------------------------|
|2-2-----10-10-10-9---2-2--10-9--7--9------|
|2-2-----10-10-10-9---2-2--10-9--7--9------|
|0-0--/--8--8--8--7---0-0--8--7--5--7------|
|------------------------------------------|


Riff 4

|---------------------------------------------------------|
|---------------------------------------------------------|
|---------------------------------------------------------|
|-2------3------2-------5-7-9------10------9--------10----|
|-0-0000-0-0000-0-0000--3-5-7-7777----7777---7777-8----8--|
|---------------------------------------------------------|
.... .... .... .... .... ....

|-----------------------------------------------------------|
|-----------------------------------------------------------|
|-----------------------------------------------------------|
|-2------3------2-------5-7-9------10--------10------12-----|
|-0-0000-0-0000-0-0000--3-5-7-7777----7777-8----8-10----10--|
|-----------------------------------------------------------|
.... .... .... .... ....

Riff 5

|----------------------------------------------------|
|----------------------------------------------------|
|----------------------------------------------------|
|-2222222222222222------------------5555555555555555-|
|-0000000000000000-2222222222222222-3333333333333333-|
|------------------0000000000000000------------------|

1st ending 2nd ending

|-------------------|--------------------|
|-------------------|--------------------|
|-------------------|--------------------|
|-5555555555555555--|--------------------|
|-2222222222222222--|--5555555555555555--|
|-------------------|--3333333333333333--|

Riff 6

Same as above but slower


The rest of the song is something like riff 3

Copyrights
Author: ?
Composer: ?
Publisher: ?
More details
Language: English

Reactions

CommonCrawl [Bot]

Follow Muzikum