Beck

Beck
Little One (Guitar tab)

Artist � Beck
Song � Little One
Album � Sea Change

Submitted By Jason Schupper (Heckler11230@yahoo.com)

Intro/Verse � Riff 1

-|-------------------------------------------------------------------|-
-|-----------5-------4-------6---------------1---3---0---------------|-
-|-------------------------------------------------------2---0-------|-
-|-------6-------6-------5-------5-------2-----------------------0---|-
-|---7---------------6---------------3-------------------------------|-
-|---------------------------------------------------3---------------|-
1. (no lyrics)
2. Go To Sleep We're so tired now
3. New Days To Throw Your Chains Away

-|-------------------------------------------------------------------|-
-|-----------2-------1-------3---------------2-------3-------5-------|-
-|---------------0---------------0-----------------------------------|-
-|-------3---------------2---------------2-------2-------2-------2---|-
-|---4---------------3---------------0-------------------------------|-
-|-------------------------------------------------------------------|-
1. (no Lyrics)
2. Altoge-ther in a snake pit of souls.
3. To try to hang your hopes on the wind.

Chorus

C A
Little O-o-o-one
F C
Just A little Way
D A
To-o-o-o-day
C G E
All we need is waiting

Verse 2 � Riff 1 (2x)

Night rise
Like the evening prize
In a turnstile backwards we fly
Cold bones
Tied together by
Black ropes we pulled from a swing

Chorus (same as above)

Little one
Just a little way
Today all of the dreams are waking


F D/F#
Can�t stand on crooked legs
G A
I�m Crosseyed to the wall
F
In these harbor lights
E A G
Satellites plooooooooooooooooooooode

Verse 3 � Riff 1(2x)

Drown, drown
Sailors run aground
In a seachange nothing is safe
Strange waves
Push us every way
In a stolen boat we'll float away

Chorus (same chords repeat till end.)

Little one
Hold on
All of the dreams are wasting

OptimusPrime

Submitted by OptimusPrime at Sun 01 Dec, 2002 8:43 am

Author: ?
Composer: ?
Publisher: ?
Language: English

Reactions

CommonCrawl [Bot]

Follow Muzikum