The Beatles

The Beatles
Real Love Ver 2 (Guitar chord)

REAL LOVE

On the CD, the song plays in a key between E and Eb. To play along,
tune the guitar down slightly until the E's line up!


Em B Em B
E--------5--7--8--7----5--7------------5--7--8--7----7----
A------8----------------------------8-------------------
G-------------------------------------------------------
D-------------------------------------------------------
A-------------------------------------------------------
E-------------------------------------------------------

E G#m/D#
All my little plans and schemes

C#m B+5
Lost like some forgotten dreams

A /G# F#m B
Seems that all I really was doing

E A E A
Was waiting for yo-o-o-o-o-o-o-o-o-o-ou

E G#m/D#
Just like little girls and boys

C#m B+5
Playing with their little toys

A F#m
Seems like all we really would do

B E A E A
Was waiting for lo-o-o-o-o-o-o-o-o-o-o-o-ve

E Am6
Only need to be a lone

E Am6
Who need to be alone?

E C#m A B E
It's re-eal love, It's re-e-e-e-eal

C#m A B
Yes, it's real love, It's re-e-e-

Em B Em B
E--------5--7--8--7----5--7------------5--7--8--7----7----
A------8----------------------------8-------------------
G-------------------------------------------------------
D-------------------------------------------------------
A-------------------------------------------------------
E-------------------------------------------------------
..eal

E G#m/D#
Once upon a time I'd know

C#m B+5
Exactly where my life would go

A F#m
Seems like all I really was doing

B E A E A
Was waiting for lo-o-o-o-o-o-o-o-o-o-ve

E Am6
Only to be a fraid

E Am6
Only to be a fraid


E C#m A B E
It's re-eal love, It's re-e-e-e-eal

C#m A B
Yes, it's re-eal love, It's re-e-e-


|F#m |C#7 |F#m |B7sus4 B7 |B7sus4 B7 |
?eal ahhh

E G#m/D#
All I did I loved be fore

C#m B+5
But in my heart I wanted more

A F#m
Seems like all I really was doing

B E
Was waiting for you

E Cdim
Only need to be a lone

E/B Am6
Only need to be a lone


E C#m A B E
It's re-eal love, It's re-e-e-e-eal

E C#m A B E
It's re-eal love, It's re-e-e-e-eal

C#m A B E
It's re-eal love, It's re-e-e-e-eal

C#m A B E
It's re-eal love, It's re-e-e-e-eal

transcription and chart by Peter Kruger
casparus50@yahoo.ca

jojo48

Submitted by jojo48 at Mon 30 Oct, 2006 10:30 pm

Author: ?
Composer: ?
Publisher: ?
Language: English

Reactions

CommonCrawl [Bot]

Follow Muzikum