The Beatles

The Beatles
The End Ver 2 (Guitar tab)

------------------------------------------------------------
THE BEATLES - THE END (Lennon/McCartney) From ABBEY ROAD
album. Released on 26th September 1969.

------------------------------------------------------------

Tabbed by:PJVillanueva





Oh, yeah, all right
Are you going to be in my dreams
Tonight?


Drums solo

Guitar solos


And in the end
The love you take
Is equal to the love you make.




A
e|------- ------- ------- -------|------- ------- ------- 5------|
B|-------------------------------|------------------------5------|
G|-------------------------------|------------------------6------|
D|-------------------------------|------------------------7------|
A|-------------------------------|------------------------7------|
E|-------------------------------|------------------------5------|

e|------- ------- ------- -------|------- ------- ------- -9-----|
B|-------------------------------|------------------------10-----|
G|-------------------------------|-------------------------9-----|
D|-------------------------------|------------------------11-----|
A|-------------------------------|-------------------------------|
E|-------------------------------|-------------------------------|



x x x x x x x x x x x x x x X
D B E
e|5------ ------- ------- 7------|7------ ------- ------- -------|
B|7-----------------------7------|9------------------------------|
G|7-----------------------8------|9------------------------------|
D|7-----------------------9------|9------------------------------|
A|5-----------------------9------|7------------------------------|
E|------------------------7------|----------------------------5--|

e|10----- ------- ------- 11-----|12----- ------- ------- -------|
B|10----------------------12-----|12-----------------------------|
G|11----------------------11-----|13--------------------------6--|
D|12----------------------13-----|14--------------------------7--|
A|-------------------------------|-------------------------------|
E|-------------------------------|-------------------------------|





e|------- ------- ------- -------|------- ------- ------- -------|
B|-------------------------------|-------------------------------|
G|-------------------------------|-------------------------------|
D|-------------------------------|-------------------------------|
A|--------5---6---7---8---9---10-|--------------------5---3B5----|
E|--------7---8---9--10--11---12-|----------------------------5--|

e|------- ------- ------- -------|------- ------- ------- -------|
B|-------------------------------|-------------------------------|
G|--------7---8---9--10--11---14-|-------------------------------|
D|--------9--10--11--12--13---14-|-------------------------------|
A|-------------------------------|-------------------------------|
E|-------------------------------|-------------------------------|




x x x x x x x x x x x x x x x x
A
e|------- ------- ------- -------|------- ------- ------- 5------|
B|-------------------------------|------------------------5------|
G|-------------------------------|------------------------6------|
D|-------------------------------|------------------------7------|
A|-------------------------------|------------------------7------|
E|-------------------------------|------------------------5------|
Oh,
e|------- ------- ------- -------|------- ------- ------- -9-----|
B|-------------------------------|------------------------10-----|
G|-------------------------------|-------------------------9-----|
D|-------------------------------|------------------------11-----|
A|-------------------------------|-------------------------------|
E|-------------------------------|-------------------------------|



x x x x x x x x x x x x x x
D B E
e|5------ ------- ------- 7------|7------ ------- ------- -------|
B|7-----------------------7------|9------------------------------|
G|7-----------------------8------|9------------------------------|
D|7-----------------------9------|9------------------------------|
A|5-----------------------9------|7------------------------------|
E|------------------------7------|----------------------------5--|
yeah, all right Are
e|10----- ------- ------- 11-----|12----- ------- ------- -------|
B|10----------------------12-----|12-----------------------------|
G|11----------------------11-----|13--------------------------6--|
D|12----------------------13-----|14--------------------------7--|
A|-------------------------------|-------------------------------|
E|-------------------------------|-------------------------------|





e|------- ------- ------- -------|------- ------- ------- -------|
B|-------------------------------|-------------------------------|
G|-------------------------------|-------------------------------|
D|-------------------------------|-------------------------------|
A|--------5---6---7---8---9---10-|--------------------5---3B5----|
E|--------7---8---9--10--11---12-|----------------------------5--|
you gonna be in my dreams tonight
e|------- ------- ------- -------|------- ------- ------- -------|
B|-------------------------------|-------------------------------|
G|--------7---8---9--10--11---14-|-------------------------------|
D|--------9--10--11--12--13---14-|-------------------------------|
A|-------------------------------|-------------------------------|
E|-------------------------------|-------------------------------|




x x x x x x x X X X
X X X X X X X X X X X X X X X X

e|------- ------- ------- -------|------- ------- ------- -------|
B|-------------------------------|-------------------------------|
G|-------------------------------|-------------------------------|
D|-------------------------------|-------------------------------|
A|-------------------------------|-------------------------------|
E|-------------------------------|-------------------------------|


X X X X X X X X X X X X
X X X X X X X X X X X X X X X X

e|------- ------- ------- -------|------- ------- ------- -------|
B|-------------------------------|-------------------------------|
G|-------------------------------|-------------------------------|
D|-------------------------------|-------------------------------|
A|-------------------------------|-------------------------------|
E|-------------------------------|-------------------------------|


X x x x X
X X X X X X X X X X X X X X X X

e|------- ------- ------- -------|------- ------- ------- -------|
B|-------------------------------|-------------------------------|
G|-------------------------------|-------------------------------|
D|-------------------------------|-------------------------------|
A|-------------------------------|-------------------------------|
E|-------------------------------|-------------------------------|


x x x X X X X X x x x X x x x x x x x
X X X X X X X X X X X X X X X X

e|------- ------- ------- -------|------- ------- ------- -------|
B|-------------------------------|-------------------------------|
G|-------------------------------|-------------------------------|
D|-------------------------------|-------------------------------|
A|-------------------------------|-------------------------------|
E|-------------------------------|-------------------------------|




A7 D7
e|------- ------- ------- -------|2------ ----2-- ------- -------|
B|2-----------2------------------|1-----------1------------------|
G|0-----------0------------------|2-----------2------------------|
D|2-----------2------------------|0-----------0------------------|
A|0-----------0------------------|-------------------------------|
E|-------------------------------|-------------------------------|




A7 D7
e|------- ------- ------- -------|2------ ----2-- ------- -------|
B|2-----------2------------------|1-----------1------------------|
G|0-----------0------------------|2-----------2------------------|
D|2-----------2------------------|0-----------0------------------|
A|0-----------0------------------|-------------------------------|
E|-------------------------------|-------------------------------|




A7 D7
e|------- ------- ------- -------|2------ ----2-- ------- -------|
B|2-----------2------------------|1-----------1------------------|
G|0-----------0------------------|2-----------2------------------|
D|2-----------2------------------|0-----------0------------------|
A|0-----------0------------------|-------------------------------|
E|-------------------------------|-------------------------------|
Love you Love you




A7 D7
e|------- ------- ------- -------|2------ ----2-- ------- -------|
B|2-----------2------------------|1-----------1------------------|
G|0-----------0------------------|2-----------2------------------|
D|2-----------2------------------|0-----------0------------------|
A|0-----------0------------------|-------------------------------|
E|-------------------------------|-------------------------------|
Love you Love you



A7 D7
e|------- ------- ------- -------|2------ ----2-- ------- -------|
B|2-----------2------------------|1-----------1------------------|
G|0-----------0------------------|2-----------2------------------|
D|2-----------2------------------|0-----------0------------------|
A|0-----------0------------------|-------------------------------|
E|-------------------------------|-------------------------------|
Love you Love you
e|------- ------- ------- -------|------- ------- ------- -------|
B|-------------------------------|-------------------------------|
G|-------------------------------|-------------------------------|
D|-------------------------------|-------------------1414-14--14-|
A|-------------------------------|-------------------------------|
E|-------------------------------|-------------------------------|
Paul




A7 D7
e|------- ------- ------- -------|2------ ----2-- ------- -------|
B|2-----------2------------------|1-----------1------------------|
G|0-----------0------------------|2-----------2------------------|
D|2-----------2------------------|0-----------0------------------|
A|0-----------0------------------|-------------------------------|
E|-------------------------------|-------------------------------|
Love you Love you
e|------- ------- ------- -------|------- ------- ------- -------|
B|-------------------------------|--------------------------H-P-H|
G|14--------------14--12---------|------------------------12141214
D|------------14---------12\10-10H12------10---------------------|
A|----------------------------12-|----------------12P10----------|
E|-------------------------------|-------------------------------|
George



A7 D7
e|------- ------- ------- -------|2------ ----2-- ------- -------|
B|2-----------2------------------|1-----------1------------------|
G|0-----------0------------------|2-----------2------------------|
D|2-----------2------------------|0-----------0------------------|
A|0-----------0------------------|-------------------------------|
E|-------------------------------|-------------------------------|
Love you Love you
e|------- ------- ------- --H-P--|------- ------- ------- -------|
B|13B15-~-----------R13--101310--|-------------------------------|
G|----------------------------H12|1412---------------------------|
D|-------------------------------|-----14----12------10B11-------|
A|-------------------------------|------------------------12-----|
E|-------------------------------|-------------------------------|




A7 D7
e|------- ------- ------- -------|2------ ----2-- ------- -------|
B|2-----------2------------------|1-----------1------------------|
G|0-----------0------------------|2-----------2------------------|
D|2-----------2------------------|0-----------0------------------|
A|0-----------0------------------|-------------------------------|
E|-------------------------------|-------------------------------|
Love you Love you
e|------- ------- ------- -------|------- ------- ------- -------|
B1212--1212--12121012121012121012|12-\---(7)--5-------13--13--13-|
G1212--1212--12121012121012121012|12-\---(7)--5------------------|
D1212--1212--12121012121012121012|12-\---(7)--5------------------|
A|---------------P-----P-----P---|-------------------------------|
E|-------------------------------|-------------------------------|
John Paul



A7 D7
e|------- ------- ------- -------|2------ ----2-- ------- -------|
B|2-----------2------------------|1-----------1------------------|
G|0-----------0------------------|2-----------2------------------|
D|2-----------2------------------|0-----------0------------------|
A|0-----------0------------------|-------------------------------|
E|-------------------------------|-------------------------------|
Love you Love you
e|------- ------- ------- -------|------- ------- ------- -------|
B|13-----------------------------|------------13B15-~-------5--5-|
G|-------------------------------|14--12--14----------------5--5-|
D|----12--10------10--14--13--14-|------------------------7------|
A|------------12-----------------|-------------------------------|
E|-------------------------------|-------------------------------|
George



A7 D7
e|------- ------- ------- -------|2------ ----2-- ------- -------|
B|2-----------2------------------|1-----------1------------------|
G|0-----------0------------------|2-----------2------------------|
D|2-----------2------------------|0-----------0------------------|
A|0-----------0------------------|-------------------------------|
E|-------------------------------|-------------------------------|
Love you Love you
e|------- ------- ------- -------|------- ------- ------- -------|
B|--5-5-5-5-5-------5---5---5----|7B8R7-------8B10-~-------------|
G|--5-5-5-5-5-------5---5---5----|7B8R7---5H7P5------------------|
D|7-----------7---7-------7------|-------------------------------|
A|-------------------------------|-------------------------------|
E|-------------------------------|--------------------0---3---5--|
Paul



A7 D7
e|------- ------- ------- -------|2------ ----2-- ------- -------|
B|2-----------2------------------|1-----------1------------------|
G|0-----------0------------------|2-----------2------------------|
D|2-----------2------------------|0-----------0------------------|
A|0-----------0------------------|-------------------------------|
E|-------------------------------|-------------------------------|
Love you Love you
e|------- ------- ------- -------|------- ------- ------- -------|
B|-------------------------------|-------------------------------|
G|-------------------------------|-------------------------------|
D|-------------------------------|----------------2--------------|
A|3-B-----5---3-B-----5----------|----3---5---3-------5---3---5--|
E|-------------------------------|-------------------------------|




A7 D7
e|------- ------- ------- -------|2------ ----2-- ------- -------|
B|2-----------2------------------|1-----------1------------------|
G|0-----------0------------------|2-----------2------------------|
D|2-----------2------------------|0-----------0------------------|
A|0-----------0------------------|-------------------------------|
E|-------------------------------|-------------------------------|
Love you Love you
e|------- ------- ------- -------|------- ------- ------- -------|
B|-------------------------------|-------------------------------|
G|------------4-4---4-4----------|----4-4---4-4------------------|
D|4-4--4--4---------------4-4--4-|4------------------------------|
A|-------------------------------|----------------9\7-7\5-3B4----|
E|-------------------------------|----------------------------5--|
George



A7 D7
e|------- ------- ------- -------|2------ ----2-- ------- -------|
B|2-----------2------------------|1-----------1------------------|
G|0-----------0------------------|2-----------2------------------|
D|2-----------2------------------|0-----------0------------------|
A|0-----------0------------------|-------------------------------|
E|-------------------------------|-------------------------------|
Love you Love you
e|------- ------- ---15B17-~-----|----15- ------- ------- -------|
B|----------------13-------------|--------13B1513---------5---7P5|
G|--/-12--12-B-14----------------|--------------------7---5---7P5|
D|-------------------------------|--------------------7---5---7P5|
A|-------------------------------|--------------------7----------|
E|-------------------------------|-------------------------------|
John



A7 D7
e|------- ------- ------- -------|2------ ----2-- ------- -------|
B|2-----------2------------------|1-----------1------------------|
G|0-----------0------------------|2-----------2------------------|
D|2-----------2------------------|0-----------0------------------|
A|0-----------0------------------|-------------------------------|
E|-------------------------------|-------------------------------|
Love you Love you
e|------- ------- ------- -------|------- ------- ------- -------|
B|7BP57BP57BP57BP57BP57BP57BP57BP57BP57BP57BP57BP57BP57BP57BP57BP5
G|7BP57BP57BP57BP57BP57BP57BP57BP57BP57BP57BP57BP57BP57BP57BP57BP5
D|7BP57BP57BP57BP57BP57BP57BP57BP57BP57BP57BP57BP57BP57BP57BP57BP5
A|-------------------------------|-------------------------------|
E|-------------------------------|-------------------------------|
(keep 5th fret barred, half bending at the 7th fret and pulling
to the 5th each time)



A
e|12--12- 12--12- 12--12- 12--12-|12--12- 12--12- 12--12- 12--12-|
B|14--14--14--14--14--14--14--14-|14--14--14--14--14--14--14--14-|
G|14--14--14--14--14--14--14--14-|14--14--14--14--14--14--14--14-|
D|-------------------------------|-------------------------------|
A|-------------------------------|-------------------------------|
E|-------------------------------|-------------------------------|





e|12--12- 12--12- 12--12- 12--12-|12--12- 12--12- 12--12- 12--12-|
B|14--14--14--14--14--14--14--14-|14--14--14--14--14--14--14--14-|
G|14--14--14--14--14--14--14--14-|14--14--14--14--14--14--14--14-|
D|-------------------------------|-------------------------------|
A|-------------------------------|-------------------------------|
E|-------------------------------|-------------------------------|
And in the end the
e|------- ------- ------- -------|------- ----9\8/9------ -------|
B|-------------------------------|-------------------------------|
G|-------------------------------|------------9\8/9--------------|
D|-------------------------------|-------------------------------|
A|-------------------------------|-------------------------------|
E|-------------------------------|-------------------------------|

e|------- ------- ------- -------|------- ------- ----9\7/9------|
B|-------------------------------|-------------------------------|
G|-------------------------------|--------------------9\7/9------|
D|-------------------------------|-------------------------------|
A|-------------------------------|-------------------------------|
E|-------------------------------|-------------------------------|




G
e|10--10- 10--10- 10--10- 10--10-|10--10- 10--10- 10--10- 10--10-|
B|12--12--12--12--12--12--12--12-|12--12--12--12--12--12--12--12-|
G|12--12--12--12--12--12--12--12-|12--12--12--12--12--12--12--12-|
D|-------------------------------|-------------------------------|
A|-------------------------------|-------------------------------|
E|-------------------------------|-------------------------------|

e|------- ------- ------- -------|------- ----7\6/7------ -------|
B|-------------------------------|-------------------------------|
G|-------------------------------|------------9\8/9--------------|
D|-------------------------------|-------------------------------|
A|-------------------------------|-------------------------------|
E|-------------------------------|-------------------------------|
love you take is



F
e|8---8-- 8---8-- 8---8-- 8---8--|8---8-- 8---8--|
B10--10--10--10--10--10--10--10--10--10--10--10--|
G10--10--10--10--10--10--10--10--10--10--10--10--|
D|-------------------------------|---------------|
A|-------------------------------|---------------|
E|-------------------------------|---------------|
equal to the


x x X X X X
Dm G C
e|------- ------- ------- -------|------- ------- ------- -------|
B|6---5-----------3--------------|5-------5-------5-------5------|
G|7-------7---5---4--------------|5-------5-------5-------5------|
D|7-------7-------5--------------|5-------5-------5-------5------|
A|5-------5-------5--------------|3-------3-------3-------3------|
E|----------------3--------------|-------------------------------|
love you make Aaaaaaa
e|------- ------- ------- -------|------- ------- ------8 10/12-8|
B|-------------------------------|--------------------8----------|
G|-------------------------------|------------------9------------|
D|-------------------------------|----------------10-------------|
A|-------------------------------|------------7-10---------------|
E|-------------------------------|----------8--------------------|



x x X X X x x X X X
D/C Cm7 D/C
e|------- ------- ------- -------|------- ------- ------- -------|
B|7-------7-------7-------7------|8-------8------10------10------|
G|7-------7-------7-------7------|8-------8------10------10------|
D|7-------7-------7-------7------|8-------8------10------10------|
A|-------------------------------|-------------------------------|
E|8-------8-------8-------8------|8-------8-------8-------8------|
aaaaaaaaaaaaaaaaaaaaaaaaahhhhhh
e|15B17-- ------- ------- -------|-1513/151311--- ------- -------|
B|-------------------------------|-----------13/1513-------------|
G|-------------------------------|------------------------14-----|
D|-------------------------------|-------------------------------|
A|-------------------------------|-------------------------------|
E|-------------------------------|-------------------------------|



(.
C
e|8------ ------- ------- -------|------- ------- ------- -------|
B|8------------------------------|-------------------------------|
G|9------------------------------|-------------------------------|
D10------------------------------|-------------------------------|
A10------------------------------|-------------------------------|
E|8------------------------------|-------------------------------|

e|------- ------- ------- -------|------- ------- ------- -------|
B|15B17--------------------------|-------------------------------|
G|-------------------------------|-------------------------------|
D|-------------------------------|-------------------------------|
A|-------------------------------|-------------------------------|
E|-------------------------------|-------------------------------|











B Bend
R Release
/ Slide up
\ Slide down
H Hammer-on
P Pull-off
~ Vibrato
+ Harmonic
x Mute note
. Play note like a dot in standard notation
^ Ties two notes together
(. Pause

pjvill

Submitted by pjvill at Sat 31 Dec, 2005 12:16 pm

Author: ?
Composer: ?
Publisher: ?
Language: English

Reactions

CommonCrawl [Bot]

Follow Muzikum