The Beatles

The Beatles
Yes It Is Ver 2 (Guitar tab)

----------------------------------------------------------------------
THE BEATLES - YES IT IS (Lennon/McCartney) Released as the B side of
TICKET TO RIDE single on 9 April 1965.

----------------------------------------------------------------------


Tabbed by:PJVillanueva




Verse 1

If you wear red tonight,
Remember what I said tonight.
For red is the colour that my baby wore,
And what's more, it’s true,
Yes it is.

Verse 2

Scarlet were the clothes she wore,
Everybody knows I’m sure.
I would remember all the things we planned,
Understand, it’s true,
Yes it is, it’s true.
Yes it is.


Middle eight 1

I could be happy with you by my side
If I could forget her, but it’s my pride.
Yes it is, yes it is.
Oh, yes it is, yeah.


Verse 3

"Please don’t wear red tonight."
This is what I said tonight.
For red is the colour that will make me blue,
In spite of you, it’s true,
Yes it is, it’s true.
Yes it is.


Middle eight 2

I could be happy with you by my side
If I could forget her, but it’s my pride.
Yes it is, yes it is.
Oh, yes it is, yeah.


Verse 4

"Please don’t wear red tonight."
This is what I say tonight.
For red is the colour that will make me blue,
In spite of you, it’s true,
Yes it is, it’s true.
Yes it is, it’s true.






I've included both John's (Strum gently with side of thumb)and George's
guitars.(George uses a volume pedal for the second time after I need you).



12/8 Time

e|------------ ------------|------------ ------------|
B|-------------------------|-------------------------|
G|-------------------------|-------------------------|
D|-------------------------|-------------9----\------|
A|-------------------------|-------------------------|
E|-------------------------|-------------7----\------|


e|0---0---0--- 0---0---0---|0---0-0-0--- 0---0---0---|
B|0---0---0----0---0---0---|0---0-0-0----0---0---0---|
G|1---1---1----1---1---1---|1---1-1-1----1---1---1---|
D|2---2---2----2---2---2---|2---2-2-2----2---2---2---|
A|2---2---2----2---2---2---|2---2-2-2----2---2---2---|
E|0---0---0----0---0---0---|0---0-0-0----0---0---0---|

e|12---------- ------------|------------ ------------|
B|-------------------------|12-----------------------|
G|-------------------------|-------------------------|


Verse 1

E A
e|0---0---0--- 0---0---0---|0---0-0-0--- 0---0---0---|
B|0---0---0----0---0---0---|2---2-2-2----2---2---2---|
G|1---1---1----1---1---1---|2---2-2-2----2---2---2---|
D|2---2---2----2---2---2---|2---2-2-2----2---2---2---|
A|2---2---2----2---2---2---|0---0-0-0----0---0---0---|
E|0---0---0----0---0---0---|-------------------------|
If you wear red to..
+
e|17---------- ------------|-------------------------|
B|-------------------------|-------------------------|



F#m7 B7
e|------------ ------------|------------ ------------|
B|5-----5-5----5---5---5---|0---0-0-0----0---0---0---|
G|2-----2-2----2---2---2---|2---2-2-2----2---2---2---|
D|2-----2-2----2---2---2---|1---1-1-1----1---1---1---|
A|4-----4-4----4---4---4---|2---2-2-2----2---2---2---|
E|2-----2-2----2---2---2---|-------------------------|
night Re..
+ +
e|------------ ------------|12-----------------------|
B|-------------------------|-------------5-----------|


7
E A
e|0---0---0--- 0---0---0---|0---0-0-0--- 0---0---0---|
B|0---0---0----0---0---0---|2---2-2-2----2---2---2---|
G|1---1---1----1---1---1---|2---2-2-2----2---2---2---|
D|2---2---2----2---2---2---|2---2-2-2----2---2---2---|
A|2---2---2----2---2---2---|0---0-0-0----0---0---0---|
E|0---0---0----0---0---0---|-------------------------|
member what I said to..
+
e|5----------- ------------|-------------------------|
B|-------------------------|-------------------------|

9
D B7
e|2---2---2--- 2---------2-|------------ ------------|
B|3---3---3----3---------3-|0---0-0-0-0--0---0---0---|
G|2---2---2----2---------2-|2---2-2-2-2--2---2---2---|
D|0---0---0----0---------0-|1---1-1-1-1--1---1---1---|
A|-------------------------|2---2-2-2-2--2---2---2---|
E|-------------------------|-------------------------|
night For
e|------------ ------------|16-----------14----------|
B|-------------------------|-------------------------|
G|-------------------------|14-----------------------|
D|-------------------------|13-----------------------|
A|-------------------------|14-----------------------|


E/Ab
e|0---0---0--- 0---0---0---|0---0-0-0--- 0---0---0---|
B|0---0---0----0---0---0---|0---0-0-0----0---0---0---|
G|1---1---1----1---1---1---|1---1-1-1----1---1---1---|
D|2---2---2----2---2---2---|2---2-2-2----2---2---2---|
A|2---2---2----2---2---2---|2---2-2-2----2---2---2---|
E|4---4---4----4---4---4---|4---4-4-4----4---4---4---|
red is the colour that my


A D
e|0---0---0--- 0-------0---|2---2---2--- 2---2---2---|
B|2---2---2----2-------2---|3---3---3----3---3---3---|
G|2---2---2----2-------2---|2---2---2----2---2---2---|
D|2---2---2----2-------2---|0---0---0----0---0---0---|
A|0---0---0----0-------0---|-------------------------|
E|-------------------------|-------------------------|
baby wore and what's more it's
e|------------ ------------|-------------------------|
B|-------------------------|7------------------------|
G|-------------------------|7------------------------|
D|-------------------------|7------------------------|
A|-------------------------|5------------------------|



Dbm E
e|4---4---4---4------4-4---|0---0---0--- 0-------0---|
B|5---5---5---5------5-5---|0---0---0----0-------0---|
G|6---6---6---6------6-6---|1---1---1----1-------1---|
D|6---6---6---6------6-6---|2---2---2----2-------2---|
A|4---4---4---4------4-4---|2---2---2----2-------2---|
E|-------------------------|0---0---0----0-------0---|
true Yes, it is
e|4----------- ------------|4------------------------|
B|5------------------------|5------------------------|
G|6------------------------|6------------------------|
D|6------------------------|6------------------------|
A|4------------------------|7------------------------|




e|0---0---0--- 0---0---0---|
B|0---0---0----0---0---0---|
G|1---1---1----1---1---1---|
D|2---2---2----2---2---2---|
A|2---2---2----2---2---2---|
E|0---0---0----0---0---0---|

e|0----------- ------------|
B|0------------------------|
G|1------------------------|
D|2------------------------|


Verse 2

E A
e|0---0---0--- 0---0---0---|0---0-0-0--- 0---0---0---|
B|0---0---0----0---0---0---|2---2-2-2----2---2---2---|
G|1---1---1----1---1---1---|2---2-2-2----2---2---2---|
D|2---2---2----2---2---2---|2---2-2-2----2---2---2---|
A|2---2---2----2---2---2---|0---0-0-0----0---0---0---|
E|0---0---0----0---0---0---|-------------------------|
Scarlet were the clothes she
e|------------ ------------|4------------------------|
B|-------------------------|2------------------------|
G|-------------------------|2------------------------|
D|-------------------------|2------------------------|



F#m7 B7
e|------------ ------------|------------ ------------|
B|5-----5-5----5---5---5---|0---0-0-0----0---0---0---|
G|2-----2-2----2---2---2---|2---2-2-2----2---2---2---|
D|2-----2-2----2---2---2---|1---1-1-1----1---1---1---|
A|4-----4-4----4---4---4---|2---2-2-2----2---2---2---|
E|2-----2-2----2---2---2---|-------------------------|
wore
e|2----------- ------------|-------------------------|
B|5------------------------|4------------------------|
G|2------------------------|2------------------------|
D|2------------------------|4------------------------|
A|4------------------------|2------------------------|
E|2------------------------|-------------------------|


E A
e|0---0---0--- 0---0---0---|0---0-0-0--- 0---0---0---|
B|0---0---0----0---0---0---|2---2-2-2----2---2---2---|
G|1---1---1----1---1---1---|2---2-2-2----2---2---2---|
D|2---2---2----2---2---2---|2---2-2-2----2---2---2---|
A|2---2---2----2---2---2---|0---0-0-0----0---0---0---|
E|0---0---0----0---0---0---|-------------------------|
Every........body knows I'm
e|4----------- ------------|4------------------------|
B|5------------------------|2------------------------|
G|4------------------------|2------------------------|
D|-------------------------|2------------------------|


D B7
e|2---2---2--- 2---------2-|------------ ------------|
B|3---3---3----3---------3-|0---0-0-0-0--0---0---0---|
G|2---2---2----2---------2-|2---2-2-2-2--2---2---2---|
D|0---0---0----0---------0-|1---1-1-1-1--1---1---1---|
A|-------------------------|2---2-2-2-2--2---2---2---|
E|-------------------------|-------------------------|
sure
e|2----------- ------------|-------------------------|
B|3------------------------|4------------------------|
G|2------------------------|2------------------------|
D|0------------------------|4------------------------|
A|-------------------------|2------------------------|


E/Ab
e|0---0---0--- 0---0---0---|0---0-0-0--- 0---0---0---|
B|0---0---0----0---0---0---|0---0-0-0----0---0---0---|
G|1---1---1----1---1---1---|1---1-1-1----1---1---1---|
D|2---2---2----2---2---2---|2---2-2-2----2---2---2---|
A|2---2---2----2---2---2---|2---2-2-2----2---2---2---|
E|4---4---4----4---4---4---|4---4-4-4----4---4---4---|
I would re...member all the
e|4----------- ------------|-------------------------|
B|5------------------------|5------------------------|
G|4------------------------|4------------------------|
D|-------------------------|6------------------------|

A D
e|0---0---0--- 0-------0---|2---2---2--- 2---2---2---|
B|2---2---2----2-------2---|3---3---3----3---3---3---|
G|2---2---2----2-------2---|2---2---2----2---2---2---|
D|2---2---2----2-------2---|0---0---0----0---0---0---|
A|0---0---0----0-------0---|-------------------------|
E|-------------------------|-------------------------|
things we planned understand it's
e|------------ ------------4-------------------------|
B|-------------------------5-------------------------|
G|-------------------------4-------------------------|


Dbm E
e|4---4---4---4------4-4---|0---0---0--- 0-------0---|
B|5---5---5---5------5-5---|0---0---0----0-------0---|
G|6---6---6---6------6-6---|1---1---1----1-------1---|
D|6---6---6---6------6-6---|2---2---2----2-------2---|
A|4---4---4---4------4-4---|2---2---2----2-------2---|
E|-------------------------|0---0---0----0-------0---|
true Yes, it is, it's
e|4----------- ------------|0------------------------|
B|5------------------------|0------------------------|
G|6------------------------|1------------------------|
D|6------------------------|2------------------------|



e|0---0-0-0--- 0---0-0-0---|0---0-0-0--- 0---0---0---|
B|0---0-0-0----0---0-0-0---|3---3-3-3----3---3---3---|
G|1---1-1-1----1---1-1-1---|1---1-1-1----1---1---1---|
D|2---2-2-2----2---2-2-2---|2---2-2-2----2---2---2---|
A|2---2-2-2----2---2-2-2---|2---2-2-2----2---2---2---|
E|0---0-0-0----0---0-0-0---|0---0-0-0----0---0---0---|
true Yes, it is
e|------------ ------------|------------ ------------|
B|3------------------------|3------------------------|
G|1------------------------|1------------------------|
D|2------------------------|0------------------------|
A|2------------------------|2------------------------|


Middle eight 1


Bm E
e|2---2---2--- 2---2---2---|0-----0-0--- 0---0---0---|
B|3---3---3----3---3---3---|0-----0-0----0---0---0---|
G|4---4---4----4---4---4---|1-----1-1----1---1---1---|
D|4---4---4----4---4---4---|2-----2-2----2---2---2---|
A|2---2---2----2---2---2---|2-----2-2----2---2---2---|
E|-------------------------|0-----0-0----0---0---0---|
I could be happy with
e|2----------- ------------|0----------- ------------|
B|3------------------------|0------------------------|
G|4------------------------|1------------------------|
D|4------------------------|2------------------------|


A F#m
e|0---------0- 0---0---0---|2---2---2--- 2---2---2---|
B|2---------2--2---2---2---|2---2---2----2---2---2---|
G|2---------2--2---2---2---|2---2---2----2---2---2---|
D|2---------2--2---2---2---|4---4---4----4---4---4---|
A|0---------0--0---0---0---|4---4---4----4---4---4---|
E|-------------------------|2------------------------|
you by my side
e|5----------- ------------|2----------- ------------|
B|5------------------------|2------------------------|
G|6------------------------|2------------------------|
D|7------------------------|4------------------------|

Bm E
e|2---2---2--- 2---2---2---|0-------0--- 0---0---0---|
B|3---3---3----3---3---3---|0-------0----0---0---0---|
G|4---4---4----4---4---4---|1-------1----1---1---1---|
D|4---4---4----4---4---4---|2-------2----2---2---2---|
A|2---2---2----2---2---2---|2-------2----2---2---2---|
E|-------------------------|0-------0----0---0---0---|
If I could forget her, but
e|3----------- ------------|0----------- ------------|
B|3------------------------|0------------------------|
G|4------------------------|1------------------------|
D|4------------------------|2------------------------|

Dbm E
e|4---------4- 4---4---4---|------------ ------------|
B|5---------5--5---5---5---|5---5---5----5---5---5---|
G|6---------6--6---6---6---|4---4---4----4---4---4---|
D|6---------6--6---6---6---|6---6---6----6---6---6---|
A|4---------4--4---4---4---|7---7---7----7---7---7---|
E|-------------------------|-------------------------|
it's my pride, Yes, it is Yes, it is Oh, yes it is
e|------------ ------------|------------ ------------|
B|5------------------------|5------------------------|
G|6------------------------|4------------------------|
D|6------------------------|6------------------------|
A|4------------------------|4------------------------|

F#m7 B7
e|------------ ------------|------------ ------------|
B|5---5---5----5---------5-|0---0---0----0---0---0---|
G|2---2---2----2---------2-|2---2---2----2---2---2---|
D|2---2---2----2---------2-|1---1---1----1---1---1---|
A|4---4---4----4---------4-|2---2---2----2---2---2---|
E|2---2---2----2---------2-|-------------------------|
Yeah
e|------------ ------------|------------ ------------|
B|5------------------------|4------------------------|
G|3------------------------|2------------------------|
D|2------------------------|4------------------------|
A|4------------------------|2------------------------|
E|2------------------------|-------------------------|



Verse 3


E A
e|0---0---0--- 0---0---0---|0---0-0-0--- 0---0---0---|
B|0---0---0----0---0---0---|2---2-2-2----2---2---2---|
G|1---1---1----1---1---1---|2---2-2-2----2---2---2---|
D|2---2---2----2---2---2---|2---2-2-2----2---2---2---|
A|2---2---2----2---2---2---|0---0-0-0----0---0---0---|
E|0---0---0----0---0---0---|-------------------------|
Please, don't wear red to..
e|4----------- ------------|-------------------------|
B|5------------------------|5------------------------|
G|4------------------------|4------------------------|
D|-------------------------|6------------------------|


F#m7 B7
e|------------ ------------|------------ ------------|
B|5-----5-5----5---5---5---|0---0-0-0----0---0---0---|
G|2-----2-2----2---2---2---|2---2-2-2----2---2---2---|
D|2-----2-2----2---2---2---|1---1-1-1----1---1---1---|
A|4-----4-4----4---4---4---|2---2-2-2----2---2---2---|
E|2-----2-2----2---2---2---|-------------------------|
night
e|------------ ------------|4------------------------|
B|-------------------------|4------------------------|
G|-------------------------|2------------------------|
D|-------------------------|4------------------------|
A|-------------------------|2------------------------|


E A
e|0---0---0--- 0---0---0---|0---0-0-0--- 0---0---0---|
B|0---0---0----0---0---0---|2---2-2-2----2---2---2---|
G|1---1---1----1---1---1---|2---2-2-2----2---2---2---|
D|2---2---2----2---2---2---|2---2-2-2----2---2---2---|
A|2---2---2----2---2---2---|0---0-0-0----0---0---0---|
E|0---0---0----0---0---0---|-------------------------|
This is what I say to..
e|4----------- ------------|4------------------------|
B|5------------------------|5------------------------|
G|5------------------------|4------------------------|
D

D B7
e|2---2---2--- 2---------2-|------------ ------------|
B|3---3---3----3---------3-|0---0-0-0-0--0---0---0---|
G|2---2---2----2---------2-|2---2-2-2-2--2---2---2---|
D|0---0---0----0---------0-|1---1-1-1-1--1---1---1---|
A|-------------------------|2---2-2-2-2--2---2---2---|
E|-------------------------|-------------------------|
night For
e|------------ ------------|-------------------------|
B|3------------------------|4------------------------|
G|2------------------------|2------------------------|
D|4------------------------|4------------------------|
A|-------------------------|2------------------------|


E/Ab
e|0---0---0--- 0---0---0---|0---0-0-0--- 0---0---0---|
B|0---0---0----0---0---0---|0---0-0-0----0---0---0---|
G|1---1---1----1---1---1---|1---1-1-1----1---1---1---|
D|2---2---2----2---2---2---|2---2-2-2----2---2---2---|
A|2---2---2----2---2---2---|2---2-2-2----2---2---2---|
E|4---4---4----4---4---4---|4---4-4-4----4---4---4---|
Red is the colour that will
e|4----------- ------------|-------------------------|
B|5------------------------|5------------------------|
G|5------------------------|4------------------------|
D|-------------------------|6------------------------|


A D
e|0---0---0--- 0-------0---|2---2---2--- 2---2---2---|
B|2---2---2----2-------2---|3---3---3----3---3---3---|
G|2---2---2----2-------2---|2---2---2----2---2---2---|
D|2---2---2----2-------2---|0---0---0----0---0---0---|
A|0---0---0----0-------0---|-------------------------|
E|-------------------------|-------------------------|
make me blue in spite of you, it's
e|------------ ------------|-------------------------|
B|2------------------------|7------------------------|
G|2------------------------|7------------------------|
D|2------------------------|7------------------------|
A|0------------------------|5------------------------|


Dbm E
e|4---4---4---4------4-4---|0---0---0--- 0-------0---|
B|5---5---5---5------5-5---|0---0---0----0-------0---|
G|6---6---6---6------6-6---|1---1---1----1-------1---|
D|6---6---6---6------6-6---|2---2---2----2-------2---|
A|4---4---4---4------4-4---|2---2---2----2-------2---|
E|-------------------------|0---0---0----0-------0---|
true Yes, it is it's
e|4----------- ------------|4------------------------|
B|5------------------------|5------------------------|
G|6------------------------|6------------------------|
D|6------------------------|6------------------------|
A|4------------------------|7------------------------|



e|0---0---0--- 0---0---0---|0---0-0-0--- 0---0---0---|
B|0---0---0----0---0---0---|0---0-0-0----0---0---0---|
G|1---1---1----1---1---1---|1---1-1-1----1---1---1---|
D|2---2---2----2---2---2---|2---2-2-2----2---2---2---|
A|2---2---2----2---2---2---|2---2-2-2----2---2---2---|
E|0---0---0----0---0---0---|0---0-0-0----0---0---0---|
true Yes, it is
e|0----------- ------------|7----------- ------------|
B|0------------------------|7------------------------|
G|1------------------------|7------------------------|
D|2------------------------|6------------------------|
A|-------------------------|7------------------------|



Middle eight 2



Bm E
e|2---2---2--- 2---2---2---|0-----0-0--- 0---0---0---|
B|3---3---3----3---3---3---|0-----0-0----0---0---0---|
G|4---4---4----4---4---4---|1-----1-1----1---1---1---|
D|4---4---4----4---4---4---|2-----2-2----2---2---2---|
A|2---2---2----2---2---2---|2-----2-2----2---2---2---|
E|-------------------------|0-----0-0----0---0---0---|
I could be happy with
e|2----------- ------------|0----------- ------------|
B|3------------------------|0------------------------|
G|4------------------------|1------------------------|
D|4------------------------|2------------------------|


A F#m
e|0---------0- 0---0---0---|2---2---2--- 2---2---2---|
B|2---------2--2---2---2---|2---2---2----2---2---2---|
G|2---------2--2---2---2---|2---2---2----2---2---2---|
D|2---------2--2---2---2---|4---4---4----4---4---4---|
A|0---------0--0---0---0---|4---4---4----4---4---4---|
E|-------------------------|2------------------------|
you by my side
e|5----------- ------------|2----------- ------------|
B|5------------------------|2------------------------|
G|6------------------------|2------------------------|
D|7------------------------|4------------------------|


Bm E
e|2---2---2--- 2---2---2---|0-------0--- 0---0---0---|
B|3---3---3----3---3---3---|0-------0----0---0---0---|
G|4---4---4----4---4---4---|1-------1----1---1---1---|
D|4---4---4----4---4---4---|2-------2----2---2---2---|
A|2---2---2----2---2---2---|2-------2----2---2---2---|
E|-------------------------|0-------0----0---0---0---|
If I could forget her, but
e|3----------- ------------|0----------- ------------|
B|3------------------------|0------------------------|
G|4------------------------|1------------------------|
D|4------------------------|2------------------------|


Dbm E
e|4---------4- 4---4---4---|------------ ------------|
B|5---------5--5---5---5---|5---5---5----5---5---5---|
G|6---------6--6---6---6---|4---4---4----4---4---4---|
D|6---------6--6---6---6---|6---6---6----6---6---6---|
A|4---------4--4---4---4---|7---7---7----7---7---7---|
E|-------------------------|-------------------------|
it's my pride, yes it is yes, it is Oh, yes it is
e|------------ ------------|------------ ------------|
B|5------------------------|5------------------------|
G|6------------------------|4------------------------|
D|6------------------------|6------------------------|
A|4------------------------|4------------------------|


F#m7 B7
e|------------ ------------|------------ ------------|
B|5---5---5----5---------5-|0---0---0----0---0---0---|
G|2---2---2----2---------2-|2---2---2----2---2---2---|
D|2---2---2----2---------2-|1---1---1----1---1---1---|
A|4---4---4----4---------4-|2---2---2----2---2---2---|
E|2---2---2----2---------2-|-------------------------|
Yeah
e|------------ ------------|------------ ------------|
B|5------------------------|4------------------------|
G|3------------------------|2------------------------|
D|2------------------------|4------------------------|
A|4------------------------|2------------------------|
E|2------------------------|-------------------------|



Verse 4


E A
e|0---0---0--- 0---0---0---|0---0-0-0--- 0---0---0---|
B|0---0---0----0---0---0---|2---2-2-2----2---2---2---|
G|1---1---1----1---1---1---|2---2-2-2----2---2---2---|
D|2---2---2----2---2---2---|2---2-2-2----2---2---2---|
A|2---2---2----2---2---2---|0---0-0-0----0---0---0---|
E|0---0---0----0---0---0---|-------------------------|
Please, don't wear red to..
e|4----------- ------------|4------------------------|
B|5------------------------|5------------------------|
G|4------------------------|4------------------------|
D|-------------------------|-------------------------|
A|-------------------------|-------------------------|
E|-------------------------|-------------------------|


F#m7 B7
e|------------ ------------|------------ ------------|
B|5-----5-5----5---5---5---|0---0-0-0----0---0---0---|
G|2-----2-2----2---2---2---|2---2-2-2----2---2---2---|
D|2-----2-2----2---2---2---|1---1-1-1----1---1---1---|
A|4-----4-4----4---4---4---|2---2-2-2----2---2---2---|
E|2-----2-2----2---2---2---|-------------------------|
night
e|------------ ------------|4------------------------|
B|5------------------------|4------------------------|
G|2------------------------|2------------------------|
D|2------------------------|4------------------------|
A|4------------------------|2------------------------|
E|-------------------------|-------------------------|

E A
e|0---0---0--- 0---0---0---|0---0-0-0--- 0---0---0---|
B|0---0---0----0---0---0---|2---2-2-2----2---2---2---|
G|1---1---1----1---1---1---|2---2-2-2----2---2---2---|
D|2---2---2----2---2---2---|2---2-2-2----2---2---2---|
A|2---2---2----2---2---2---|0---0-0-0----0---0---0---|
E|0---0---0----0---0---0---|-------------------------|
This is what I say to..
e|4----------- ------------|4------------------------|
B|5------------------------|5------------------------|
G|5------------------------|4------------------------|
D|-------------------------|-------------------------|
A|-------------------------|-------------------------|
E|-------------------------|-------------------------|


D B7
e|2---2---2--- 2---------2-|------------ ------------|
B|3---3---3----3---------3-|0---0-0-0-0--0---0---0---|
G|2---2---2----2---------2-|2---2-2-2-2--2---2---2---|
D|0---0---0----0---------0-|1---1-1-1-1--1---1---1---|
A|-------------------------|2---2-2-2-2--2---2---2---|
E|-------------------------|-------------------------|
night For
e|2----------- ------------|4------------------------|
B|3------------------------|4------------------------|
G|2------------------------|2------------------------|
D|-------------------------|4------------------------|
A|-------------------------|2------------------------|
E|-------------------------|-------------------------|


E/Ab
e|0---0---0--- 0---0---0---|0---0-0-0--- 0---0---0---|
B|0---0---0----0---0---0---|0---0-0-0----0---0---0---|
G|1---1---1----1---1---1---|1---1-1-1----1---1---1---|
D|2---2---2----2---2---2---|2---2-2-2----2---2---2---|
A|2---2---2----2---2---2---|2---2-2-2----2---2---2---|
E|4---4---4----4---4---4---|4---4-4-4----4---4---4---|
red is the colour that will
e|4----------- ------------|-------------------------|
B|5------------------------|5------------------------|
G|5------------------------|4------------------------|
D|-------------------------|6------------------------|
A|-------------------------|-------------------------|
E|-------------------------|-------------------------|


A D
e|0---0---0--- 0-------0---|2---2---2--- 2---2---2---|
B|2---2---2----2-------2---|3---3---3----3---3---3---|
G|2---2---2----2-------2---|2---2---2----2---2---2---|
D|2---2---2----2-------2---|0---0---0----0---0---0---|
A|0---0---0----0-------0---|-------------------------|
E|-------------------------|-------------------------|
make me blue in spite of you it's
e|------------ ------------|-------------------------|
B|-------------2-----------|7------------------------|
G|-------------2-----------|7------------------------|
D|-------------2-----------|7------------------------|
A|-------------0-----------|5------------------------|
E|-------------------------|-------------------------|

Dbm E
e|4---4---4---4------4-4---|0---0---0--- 0-------0---|
B|5---5---5---5------5-5---|0---0---0----0-------0---|
G|6---6---6---6------6-6---|1---1---1----1-------1---|
D|6---6---6---6------6-6---|2---2---2----2-------2---|
A|4---4---4---4------4-4---|2---2---2----2-------2---|
E|-------------------------|0---0---0----0-------0---|
true Yes, it is it's
e|4----------- ------------|4------------------------|
B|5------------------------|5------------------------|
G|6------------------------|6------------------------|
D|6------------------------|6------------------------|
A|4------------------------|7------------------------|
E|-------------------------|-------------------------|



e|4---4---4--- 4---4---4---|5----5-5---- 5----5-5----|
B|4---4---4----4---4---4---|5----5-5-----5----5-5----|
G|5---5---1----1---1---1---|6----6-6-----6----6-6----|
D|6---6---6----6---6---6---|7----7-7-----7----7-7----|
A|6---6---6----6---6---6---|7----7-7-----7----7-7----|
E|4---4---4----4---4---4---|5----7-7-----5----5-5----|
true Yes, it is it's
e|4----------- ------------|------------ ------------|
B|4------------------------|2------------------------|
G|6------------------------|2------------------------|
D|6------------------------|2------------------------|
A|6------------------------|0------------------------|
E|4------------------------|-------------------------|

(.
e|0----------- ------------|------------ ------------|
B|0------------------------|-------------------------|
G|1------------------------|-------------------------|
D|2------------------------|-------------------------|
A|2------------------------|-------------------------|
E|0------------------------|-------------------------|
true
e|------------ 11----------|------------ ------------|
B|-------------------12----|------14-----------------|
G|-------------------------|13-----------------------|
D|-------------------------|-------------------------|
A|-------------------------|-------------------------|
E|-------------------------|-------------------------|








B Bend
R Release
/ slide up
\ slide down
H hammer-on
P pull-off
~ vibrato
+ harmonic
x Mute note
. - play note like a dot in standard notation
^ - ties two notes together
(. Pause

pjvill

Submitted by pjvill at Thu 15 Dec, 2005 10:14 am

Author: ?
Composer: ?
Publisher: ?
Language: English

Reactions

CommonCrawl [Bot]

Follow Muzikum