The Beatles

The Beatles
Yer Blues Ver 2 (Guitar tab)

------------------------------------------------------------------
THE BEATLES - YER BLUES (Lennon/McCartney) From THE WHITE ALBUM.
Released on 22nd November 1968.

------------------------------------------------------------------

Tabbed by:PJVillanueva





Yes I'm lonely wanna die
Yes I'm lonely wanna die
If I ain't dead already
Ooh girl you know the reason why.

In the morning wanna die
In the evening wanna die
If I ain't dead already
Ooh girl you know the reason why.

My mother was of the sky
My father was of the earth
But I am of the universe
And you know what it's worth
I'm lonely wanna die
If I ain't dead already
Ooh girl you know the reason why.

The eagle picks my eye
The worm he licks my bone
I feel so suicidal
Just like Dylan's Mr. Jones
Lonely wanna die
If I ain't dead already
Ooh girl you know the reason why.

Black cloud crossed my mind
Blue mist round my soul
Feel so suicidal
Even hate my rock and roll
Wanna die yeah wanna die
If I ain't dead already
Ooh girl you know the reason why.





Two
e|--------- --------- ---------|--------- --------- ---------|
B|-----------------------------|-----------------------------|
G|-----------------------------|-----------------------------|
D|-----------------------------|-----------------------------|
A|-----------------------------|-----------------------------|
E|-----------------------------|-----------------------------|




three x x x x x x x
e|--------- --------- ---------|--------- --------- ---------|
B|-----------------------------|-----------------------------|
G|-----------------------------|-----------------------------|
D|-----------------------------|-----------------------------|
A|-----------------------------|-----------------------------|
E|-----------------------------|-----------------------------|
Yes, I'm


E
e|--------- --------- ---------|--------- --------- ---------|
B|-----------------------------|-----------------------------|
G|--------------------7--7--7--|7----------------------------|
D|--------------------9--9--9--|9----------------------------|
A|-----------------------------|-----------------------------|
E|-----------------------------|-----------------------------|
lonely
e|--------- --------- ---------|--------- --------- ---------|
B|-----------------------------|-----------------------------|
G|-----------------------------|-----------------------------|
D|-----------------------------|----------5-------B-7---R-5--|
A|7----------------------------|-----------------------------|
E|-----------------------------|-----------------------------|




e|--------- --------- ---------|--------- --------- ---------|
B|-----------------------------|-----------------------------|
G|-----------------------------|-----------------------------|
D|-----------------------------|-----------------------------|
A|-----------------------------|-----------------------------|
E|-----------------------------|-----------------------------|
Wanna
e|--------- --------- ---------|--------- --------- ---------|
B|-----------------------------|-----------------------------|
G|-----------------------------|-----------------------------|
D|-----------------------------|-----------------------------|
A|7----------------------------|-----------------------------|
E|-----------------------------|-----------------------------|



e|--------- --------- ---------|--------- --------- ---------|
B|-----------------------------|-----------------------------|
G|--------------------7--7--7--|7----------------------------|
D|--------------------9--9--9--|9----------------------------|
A|-----------------------------|-----------------------------|
E|-----------------------------|-----------------------------|
die
e|--------- --------- ---------|--------- --------- ---------|
B|-----------------------------|-----------------------------|
G|-----------------------------|-----------------------------|
D|-----------------------------|5-B-7---------R-5-B-7---R-5--|
A|-----------------------------|-----------------------------|
E|-----------------------------|-----------------------------|




e|--------- --------- ---------|--------- --------- ---------|
B|-----------------------------|-----------------------------|
G|-----------------------------|-----------------------------|
D|-----------------------------|-----------------------------|
A|-----------------------------|-----------------------------|
E|-----------------------------|-----------------------------|
Yes, I'm
e|--------- --------- ---------|--------- --------- ---------|
B|-----------------------------|-----------------------------|
G|-----------------------------|-----------------------------|
D|-----------------------------|-----------------------------|
A|7----------------------------|-----------------------------|
E|-----------------------------|-----------------------------|



A
e|--------- --------- ---------|--------- --------- ---------|
B|-----------------------------|-----------------------------|
G|--------------------7--7--7--|7----------------------------|
D|--------------------9--9--9--|9----------------------------|
A|-----------------------------|-----------------------------|
E|-----------------------------|-----------------------------|
lonely
e|--------- --------- ---------|--------- --------- ---------|
B|-----------------------------|-----------------------------|
G|--------------------9--------|-----------------------------|
D|----------------9------------|5-B-7---------R-5-B-7---R-5-B|
A|7----------------------------|-----------------------------|
E|-----------------------------|-----------------------------|




e|--------- --------- ---------|--------- --------- ---------|
B|-----------------------------|-----------------------------|
G|-----------------------------|-----------------------------|
D|-----------------------------|-----------------------------|
A|-----------------------------|-----------------------------|
E|-----------------------------|-----------------------------|
wanna
e|--------- --------- ---------|--------- --------- ---------|
B|-----------------------------|-----------------------------|
G|-----------------------------|-----------------------------|
D|-----------------------------|-----------------------------|
A|7----------------------------|-----------------------------|
E|-----------------------------|-----------------------------|



E
e|--------- --------- ---------|--------- --------- ---------|
B|-----------------------------|-----------------------------|
G|--------------------7--7--7--|7----------------------------|
D|--------------------9--9--9--|9----------------------------|
A|-----------------------------|-----------------------------|
E|-----------------------------|-----------------------------|
die
e|--------- --------- ---------|--------- --------- ---------|
B|-----------------------------|-----------------------------|
G|--------------------9--------|-----------------------------|
D|----------------9------------|5-B-7---------R-5-B-7---R-5--|
A|7----------------------------|-----------------------------|
E|-----------------------------|-----------------------------|




e|--------- --------- ---------|--------- --------- ---------|
B|-----------------------------|-----------------------------|
G|--------------------7--7--7--|7----------------------------|
D|--------------------6--6--6--|6----------------------------|
A|-----------------------------|-----------------------------|
E|-----------------------------|-----------------------------|
If I ain't
e|--------- --------- ---------|--------- --------- ---------|
B|-----------------------------|-----------------------------|
G|-----------------------------|-----------------------------|
D|-----------------------------|-----------------------------|
A|7----------------------------|-----------------------------|
E|-----------------------------|-----------------------------|



G
e|--------- --------- ---------|--------- --------- ---------|
B|-----------------------------|-----------------------------|
G|-----------------------------|--------------------------6-/|
D|-----------------------------|----------5------------------|
A|--------------------5--------|7-------------------7--------|
E|3------/--7------------------|-----------------------------|
dead already Oooohh
e|--------- --------- ---------|--------- --------- ---------|
B|--------------------8--------|-----------------------------|
G|-----------------------------|-----------------------------|
D|-----------------------------|7--B--9----------------------|
A|-----------------------------|-----------------------------|
E|-----------------------------|-----------------------------|




B
e|------7-\ 5-------- 4--------|3-----2-- --------- ---------|
B|------7-\-5---------4--------|3-----2----------------------|
G|8-------\-6---------4--------|3-----2----------------------|
D|-----------------------------|-----------------------------|
A|-----------------------------|-----------------------------|
E|-----------------------------|-----------------------------|
Girl, you



E7
e|--------- ---------|--------- --------- ---------|
B|-------------------|5----------------------------|
G|-------------------|7----------------------------|
D|-------------------|6----------------------------|
A|-------------------|7----------------------------|
E|-------------------|-----------------------------|
know the reason why
e|--------- ---------|--------- --------- ---------|
B|-------------------|-----------------------------|
G|-------------------|--------------------9--------|
D|-------------------|----------------9------------|
A|-------------------|7----------------------------|
E|-------------------|-----------------------------|




A7 E7
e|--------- --------- ---------|--------- --------- ---------|
B|5----------------------------|5----------------------------|
G|6----------------------------|7----------------------------|
D|5----------------------------|6----------------------------|
A|0----------------------------|7----------------------------|
E|-----------------------------|-----------------------------|

e|--------- --------- ---------|--------- --------- ---------|
B|-----------------------------|-----------------------------|
G|-----------------------------|-----------------------------|
D|5-B-7---------R-5-B-7--R--5--|-----------------------------|
A|-----------------------------|7---------------5------------|
E|-----------------------------|--------------------7--------|





B7
e|--------- --------- ---------|
B|-----------------------------|
G|8----------------------------|
D|7----------------------------|
A|9----------------------------|
E|7----------------------------|
In the morning
e|--------- --------- ---------|
B|-----------------------------|
G|-----------------------------|
D|-----------------------------|
A|-----------------------------|
E|7---------7---------7--------|





e|--------- --------- ---------|--------- --------- ---------|
B|-----------------------------|-----------------------------|
G|--------------------7--7--7--|7----------------------------|
D|--------------------9--9--9--|9----------------------------|
A|-----------------------------|-----------------------------|
E|-----------------------------|-----------------------------|

e|--------- --------- ---------|--------- --------- ---------|
B|-----------------------------|-----------------------------|
G|-----------------------------|-----------------------------|
D|-----------------------------|----------5-------B-7---R-5--|
A|7----------------------------|-----------------------------|
E|-----------------------------|-----------------------------|




e|--------- --------- ---------|--------- --------- ---------|
B|-----------------------------|-----------------------------|
G|-----------------------------|-----------------------------|
D|-----------------------------|-----------------------------|
A|-----------------------------|-----------------------------|
E|-----------------------------|-----------------------------|
Wanna
e|--------- --------- ---------|--------- --------- ---------|
B|-----------------------------|-----------------------------|
G|-----------------------------|-----------------------------|
D|-----------------------------|-----------------------------|
A|7----------------------------|-----------------------------|
E|-----------------------------|-----------------------------|



e|--------- --------- ---------|--------- --------- ---------|
B|-----------------------------|-----------------------------|
G|--------------------7--7--7--|7----------------------------|
D|--------------------9--9--9--|9----------------------------|
A|-----------------------------|-----------------------------|
E|-----------------------------|-----------------------------|
die
e|--------- --------- ---------|--------- --------- ---------|
B|-----------------------------|-----------------------------|
G|--------------------9--------|-----------------------------|
D|----------------9------------|5-B-7---------R-5-B-7---R-5--|
A|7----------------------------|-----------------------------|
E|-----------------------------|-----------------------------|




e|--------- --------- ---------|--------- --------- ---------|
B|-----------------------------|-----------------------------|
G|-----------------------------|-----------------------------|
D|-----------------------------|-----------------------------|
A|-----------------------------|-----------------------------|
E|-----------------------------|-----------------------------|
In the evening
e|--------- --------- ---------|--------- --------- ---------|
B|-----------------------------|-----------------------------|
G|-----------------------------|-----------------------------|
D|-----------------------------|-----------------------------|
A|7----------------------------|-----------------------------|
E|-----------------------------|-----------------------------|



A
e|--------- --------- ---------|--------- --------- ---------|
B|-----------------------------|-----------------------------|
G|--------------------7--7--7--|7----------------------------|
D|--------------------9--9--9--|9----------------------------|
A|-----------------------------|-----------------------------|
E|-----------------------------|-----------------------------|

e|--------- --------- ---------|--------- --------- ---------|
B|-----------------------------|-----------------------------|
G|-----------------------------|-----------------------------|
D|-----------------------------|5-B-7---------R-5-B-7---R-5-B|
A|-----------------------------|-----------------------------|
E|-----------------------------|-----------------------------|




e|--------- --------- ---------|--------- --------- ---------|
B|-----------------------------|-----------------------------|
G|-----------------------------|-----------------------------|
D|-----------------------------|-----------------------------|
A|-----------------------------|-----------------------------|
E|-----------------------------|-----------------------------|
wanna
e|--------- --------- ---------|--------- --------- ---------|
B|-----------------------------|-----------------------------|
G|-----------------------------|-----------------------------|
D|-----------------------------|-----------------------------|
A|7----------------------------|-----------------------------|
E|-----------------------------|-----------------------------|



E
e|--------- --------- ---------|--------- --------- ---------|
B|-----------------------------|-----------------------------|
G|--------------------7--7--7--|7----------------------------|
D|--------------------9--9--9--|9----------------------------|
A|-----------------------------|-----------------------------|
E|-----------------------------|-----------------------------|
die
e|--------- --------- ---------|--------- --------- ---------|
B|-----------------------------|-----------------------------|
G|--------------------9--------|-----------------------------|
D|----------------9------------|5-B-7---------R-5-B-7---R-5--|
A|7----------------------------|-----------------------------|
E|-----------------------------|-----------------------------|




e|--------- --------- ---------|--------- --------- ---------|
B|-----------------------------|-----------------------------|
G|--------------------7--7--7--|7----------------------------|
D|--------------------9--9--9--|9----------------------------|
A|-----------------------------|-----------------------------|
E|-----------------------------|-----------------------------|
If I ain't
e|--------- --------- ---------|--------- --------- ---------|
B|-----------------------------|-----------------------------|
G|-----------------------------|-----------------------------|
D|-----------------------------|-----------------------------|
A|7----------------------------|-----------------------------|
E|-----------------------------|-----------------------------|



G
e|--------- --------- ---------|--------- --------- ---------|
B|-----------------------------|-----------------------------|
G|-----------------------------|--------------------------6-/|
D|-----------------------------|----------5------------------|
A|--------------------5-----5-H|7-------------------7--------|
E|3------/--7------------------|-----------------------------|
dead already Oooohh
e|--------- --------- ---------|--------- --------- ---------|
B|--------------------8--------|-----------------------------|
G|-----------------------------|7--B--9----------------------|
D|-----------------------------|-----------------------------|
A|-----------------------------|-----------------------------|
E|-----------------------------|-----------------------------|



B
e|------7-\ 5-------- 4--------|3-----2-- --------- ---------|
B|------7-\-5---------4--------|3-----2----------------------|
G|8-------\-6---------4--------|3-----2----------------------|
D|-----------------------------|-----------------------------|
A|-----------------------------|-----------------------------|
E|-----------------------------|-----------------------------|
Girl, you




E7
e|--------- ---------|--------- --------- ---------|
B|-------------------|5----------------------------|
G|-------------------|7----------------------------|
D|-------------------|6----------------------------|
A|-------------------|7----------------------------|
E|-------------------|-----------------------------|
know the reason why
e|--------- ---------|--------- --------- ---------|
B|-------------------|-----------------------------|
G|-------------------|--------------------9--------|
D|-------------------|----------------9------------|
A|-------------------|7----------------------------|
E|-------------------|-----------------------------|




A7 E7
e|--------- --------- ---------|--------- --------- ---------|
B|5----------------------------|5----------------------------|
G|6----------------------------|7----------------------------|
D|5----------------------------|6----------------------------|
A|0----------------------------|7----------------------------|
E|-----------------------------|-----------------------------|

e|--------- --------- ---------|--------- --------- ---------|
B|-----------------------------|-----------------------------|
G|-----------------------------|-----------------------------|
D|5-B-7---------R-5-B-7--R--5--|-----------------------------|
A|-----------------------------|7---------------5---------5--|
E|-----------------------------|--------------------7--------|




B7
e|--------- --------- ---------|
B|-----------------------------|
G|8---------------8------------|
D|7---------------7------------|
A|9---------------9------------|
E|7---------------7------------|
My
e|--------- --------- ---------|
B|-----------------------------|
G|-----------------------------|
D|-----------------------------|
A|-----------------------------|
E|7----------------------------|




E A6 E A6
e|0----- ------ ------ 2-----|0----- ------ ------ 2-----|
B|0--------------------2-----|0--------------------2-----|
G|1--------------------2-----|1--------------------2-----|
D|2--------------------2-----|2--------------------2-----|
A|2--------------------0-----|2--------------------0-----|
E|0--------------------------|0--------------------------|
mother was of the sky My father was of the earth, but




E
e|0----- ------ ------ ------|
B|0--------------------------|
G|1--------------------------|
D|2--------------------------|
A|2--------------------------|
E|0--------------------------|
I am of the universe and





e|--------- --------- ---------|--------- --------- ---------|
B|10B12---------------8-B-9----|-----------------------------|
G|-----------------------------|-----------------------------|
D|-----------------------------|-----------------------------|
A|-----------------------------|-----------------------------|
E|-----------------------------|-----------------------------|
you know what it's worth I'm




A
e|--------- --------- ---------|--------- --------- ---------|
B|-----------------------------|-----------------------------|
G|--------------------7--7--7--|7----------------------------|
D|--------------------9--9--9--|9----------------------------|
A|-----------------------------|-----------------------------|
E|-----------------------------|-----------------------------|
lonely
e|--------- --------- ---------|--------- --------- ---------|
B|-----------------------------|-----------------------------|
G|-----------------------------|-----------------------------|
D|-----------------------------|5-B-7---------R-5-B-7---R-5-B|
A|-----------------------------|-----------------------------|
E|-----------------------------|-----------------------------|





e|--------- --------- ---------|--------- --------- ---------|
B|-----------------------------|-----------------------------|
G|--------------------7--7--7--|7---------7--7--7---7--------|
D|--------------------9--9--9--|9---------9--9--9---9--------|
A|-----------------------------|-----------------------------|
E|-----------------------------|-----------------------------|
wanna
e|--------- --------- ---------|--------- --------- ---------|
B|-----------------------------|-----------------------------|
G|-----------------------------|-----------------------------|
D|-----------------------------|-----------------------------|
A|7----------------------------|-----------------------------|
E|-----------------------------|-----------------------------|



E
e|--------- --------- ---------|--------- --------- ---------|
B|5----------------------------|-----------------------------|
G|7----------------------------|----------7--7--7---7--------|
D|6----------------------------|----------9--9--9---9--------|
A|7----------------------------|-----------------------------|
E|-----------------------------|-----------------------------|
die
e|--------- --------- ---------|--------- --------- ---------|
B|-----------------------------|-----------------------------|
G|--------------------9--------|-----------------------------|
D|----------------9------------|5-B-7---------R-5-B-7---R-5--|
A|7----------------------------|-----------------------------|
E|-----------------------------|-----------------------------|




e|--------- --------- ---------|--------- --------- ---------|
B|5----------------------------|-----------------------------|
G|7----------------------------|----------7--7--7---7--------|
D|6----------------------------|----------9--9--9---9--------|
A|7----------------------------|-----------------------------|
E|-----------------------------|-----------------------------|
If I ain't
e|--------- --------- ---------|--------- --------- ---------|
B|-----------------------------|-----------------------------|
G|-----------------------------|-----------------------------|
D|-----------------------------|-----------------------------|
A|7----------------------------|-----------------------------|
E|-----------------------------|-----------------------------|



G
e|--------- --------- ---------|--------- --------- ---------|
B|-----------------------------|-----------------------------|
G|-----------------------------|--------------------------6-/|
D|-----------------------------|----------5------------------|
A|--------------------5--------|7-------------------7--------|
E|3------/--7------------------|-----------------------------|
dead already Oooohh
e|--------- --------- ---------|--------- --------- ---------|
B|-----------------------------|-----------------------------|
G|-----------------------------|-----------------------------|
D|-----------------------------|7--B--9----------------------|
A|-----------------------------|-----------------------------|
E|-----------------------------|-----------------------------|




B
e|------7-\ 5-------- 4--------|3-----2-- --------- ---------|
B|------7-\-5---------4--------|3-----2----------------------|
G|8-------\-6---------4--------|3-----2----------------------|
D|-----------------------------|-----------------------------|
A|-----------------------------|-----------------------------|
E|-----------------------------|-----------------------------|
Girl, you




E7
e|--------- ---------|--------- --------- ---------|
B|-------------------|5----------------------------|
G|-------------------|7----------------------------|
D|-------------------|6----------------------------|
A|-------------------|7----------------------------|
E|-------------------|-----------------------------|
know the reason why
e|--------- ---------|--------- --------- ---------|
B|-------------------|-----------------------------|
G|-------------------|--------------------9--------|
D|-------------------|----------------9------------|
A|-------------------|7----------------------------|
E|-------------------|-----------------------------|





e|--------- --------- ---------|--------- --------- ---------|
B|5----------------------------|5----------------------------|
G|6----------------------------|7---------------8------------|
D|5----------------------------|6---------------7------------|
A|0----------------------------|7---------------9------------|
E|-----------------------------|----------------7------------|

e|--------- --------- ---------|--------- --------- ---------|
B|-----------------------------|-----------------------------|
G|-----------------------------|-----------------------------|
D|5-B-7---------R-5-B-7--R--5--|-----------------------------|
A|-----------------------------|7---------------5---------5--|
E|-----------------------------|--------------------7--------|





e|--------- --------- ---------|
B|-----------------------------|
G|8---------8-----8------------|
D|7---------7-----7------------|
A|9---------9-----9------------|
E|7---------7-----7------------|
The
e|--------- --------- ---------|
B|-----------------------------|
G|-----------------------------|
D|-----------------------------|
A|-----------------------------|
E|7---------7-----7------------|





E A E A
e|0----- ------ ------ 0-----|0----- ------ ------ ------|
B|0--------------------2-----|0--------------------2-----|
G|1--------------------2-----|1--------------------2-----|
D|2--------------------2-----|2--------------------2-----|
A|2--------------------0-----|2--------------------0-----|
E|0--------------------------|0--------------------------|
eagle picks my eye The worm he licks my bone I
e|------ ------ ------ 12----|------ ------ ------ 12----|
B|---------------------12----|---------------------12----|
G|---------------------13----|---------------------13----|
D|---------------------------|---------------------------|
A|---------------------------|---------------------------|
E|---------------------------|---------------------------|



E
e|0----- ------ ------ ------|
B|0--------------------------|
G|1--------------------------|
D|2--------------------------|
A|2--------------------------|
E|0--------------------------|
feel so suicidal





e|12-12-12-12---12-12 12-12----|12-12-12-12---12-12 12-12----|
B|12-12-12-12---12-12-12-12----|12-12-12-12---12-12-12-12----|
G|13-13-13-13---13-13-13-13----|13-13-13-13---13-13-13-13----|
D|-----------------------------|-----------------------------|
A|-----------------------------|-----------------------------|
E|-----------------------------|-----------------------------|




A
e|--------- --------- ---------|--------- --------- ---------|
B|-----------------------------|-----------------------------|
G|--------------------7--7--7--|7----------------------------|
D|--------------------9--9--9--|9----------------------------|
A|-----------------------------|-----------------------------|
E|-----------------------------|-----------------------------|
lonely
e|--------- --------- ---------|--------- --------- ---------|
B|-----------------------------|-----------------------------|
G|--------------------9--------|-----------------------------|
D|----------------9------------|5-B-7---------R-5-B-7---R-5-B|
A|7----------------------------|-----------------------------|
E|-----------------------------|-----------------------------|




e|--------- --------- ---------|--------- --------- ---------|
B|-----------------------------|-----------------------------|
G|--------------------7--7--7--|7---------7--7--7---7--------|
D|--------------------9--9--9--|9---------9--9--9---9--------|
A|-----------------------------|-----------------------------|
E|-----------------------------|-----------------------------|
wanna
e|--------- --------- ---------|--------- --------- ---------|
B|-----------------------------|-----------------------------|
G|-----------------------------|-----------------------------|
D|-----------------------------|-----------------------------|
A|7----------------------------|-----------------------------|
E|-----------------------------|-----------------------------|




E
e|--------- --------- ---------|--------- --------- ---------|
B|5----------------------------|--------------------5--5--5--|
G|7----------------------------|--------------------7--7--7--|
D|6----------------------------|--------------------6--6--6--|
A|7----------------------------|--------------------7--7--7--|
E|-----------------------------|-----------------------------|
die
e|--------- --------- ---------|--------- --------- ---------|
B|-----------------------------|-----------------------------|
G|--------------------9--------|-----------------------------|
D|----------------9------------|5-B-7---------R-5-B-7---R-5--|
A|7----------------------------|-----------------------------|
E|-----------------------------|-----------------------------|




e|--------- --------- ---------|--------- --------- ---------|
B|-----------------------------|-----------------------------|
G|--------------------7--7--7--|----------7--7--7---7--------|
D|--------------------9--9--9--|----------9--9--9---9--------|
A|-----------------------------|-----------------------------|
E|-----------------------------|-----------------------------|
If I ain't
e|--------- --------- ---------|--------- --------- ---------|
B|-----------------------------|-----------------------------|
G|-----------------------------|-----------------------------|
D|-----------------------------|-----------------------------|
A|7----------------------------|-----------------------------|
E|-----------------------------|-----------------------------|




G
e|--------- --------- ---------|--------- --------- ---------|
B|-----------------------------|-----------------------------|
G|-----------------------------|--------------------------6-/|
D|-----------------------------|----------5------------------|
A|--------------------5--------|7-------------------7--------|
E|3------/--7------------------|-----------------------------|
dead already Oooohh
e|--------- --------- ---------|--------- --------- ---------|
B|-----------------------------|-----------------------------|
G|-----------------------------|-----------------------------|
D|-----------------------------|7---------7--B--9------------|
A|-----------------------------|-----------------------------|
E|-----------------------------|-----------------------------|




B
e|------7-\ 5-------- 4--------|3-----2-- --------- ---------|
B|------7-\-5---------4--------|3-----2----------------------|
G|8-------\-6---------4--------|3-----2----------------------|
D|-----------------------------|-----------------------------|
A|-----------------------------|-----------------------------|
E|-----------------------------|-----------------------------|
Girl, you




E7
e|--------- ---------|--------- --------- ---------|
B|-------------------|5----------------------------|
G|-------------------|7----------------------------|
D|-------------------|6----------------------------|
A|-------------------|7----------------------------|
E|-------------------|-----------------------------|
know the reason why
e|--------- ---------|--------- --------- ---------|
B|-------------------|-----------------------------|
G|-------------------|--------------------9--------|
D|-------------------|----------------9------------|
A|-------------------|7----------------------------|
E|-------------------|-----------------------------|




A7 E7 B7
e|--------- --------- ---------|--------- --------- ---------|
B|5-------------------5--------|5----------------------------|
G|6-------------------6--------|7-------------------8--------|
D|5-------------------5--------|6-------------------7--------|
A|0-------------------0--------|7-------------------9--------|
E|-----------------------------|--------------------7--------|

e|--------- --------- ---------|--------- --------- ---------|
B|-----------------------------|-----------------------------|
G|-----------------------------|-----------------------------|
D|5-B-7---------R-5-B-7--R--5--|-----------------------------|
A|-----------------------------|7---------------5------------|
E|-----------------------------|--------------------7--------|





e|--------- --------- ---------|
B|-----------------------------|
G|8---------8---------8--------|
D|7---------7---------7--------|
A|9---------9---------9--------|
E|7---------7---------7--------|

e|--------- --------- ---------|
B|-----------------------------|
G|-----------------------------|
D|-----------------------------|
A|-----------------------------|
E|7----------------------------|




E A6 E A6
e|0----- ------ ------ 2-----|0----- ------ ------ 2-----|
B|0--------------------2-----|0--------------------2-----|
G|1--------------------2-----|1--------------------2-----|
D|2--------------------2-----|2--------------------2-----|
A|2--------------------0-----|2--------------------0-----|
E|0--------------------------|0--------------------------|
Black cloud crossed my mind Blue mist round my soul
e|------ ------ ------ 12-\--|------ ------ ------ 12-\--|
B|---------------------12-\--|---------------------12-\--|
G|---------------------13-\--|---------------------13-\--|
D|---------------------------|---------------------------|
A|---------------------------|---------------------------|
E|---------------------------|---------------------------|



E E7
e|0----- ------ ------ ------|------ ------ ------ ------|
B|0--------------------------|5-5-5--5-5-5--5-5-5--5-5-5-|
G|1--------------------------|7-7-7--7-7-7--7-7-7--7-7-7-|
D|2--------------------------|6-6-6--6-6-6--6-6-6--6-6-6-|
A|2--------------------------|7-7-7--7-7-7--7-7-7--7-7-7-|
E|0--------------------------|---------------------------|
Feel so suicidal even hate my rock and roll wanna
e|------ ------ ------ ------|121212 12---- ------ ------|
B|---------------------------|121212-12----10B12-8-------|
G|---------------------------|131313-13----------------9-|
D|---------------------------|---------------------------|
A|---------------------------|---------------------------|
E|---------------------------|---------------------------|



A
e|------ ------ ------ ------|------ ------ ------ ------|
B|---------------------------|---------------------------|
G|---------------------------|-------------------------0-|
D|--------------2---2--2H4P2-|--------------2---2--2-----|
A|0---0--3---4---------------|0---0--3---4---------------|
E|---------------------------|---------------------------|
die yeah wanna
e|------ ------ ------ ------|------ ------ ------ ------|
B|---------------------------|---------------------------|
G|--------------7---7--9H11P9|---------------------------|
D|-----------9---------------|-------9-\-7--5------5-----|
A|---------------------------|------------------7--------|
E|---------------------------|---------------------------|



E
e|------ ------ ------ ------|------ ------ ------ ------|
B|---------------------------|---------------------------|
G|---------------------------|---------------------------|
D|-------------------------2-|---------------------------|
A|--------------2---2--4-----|--------------2---2--2H4P2-|
E|0---0--3---4---------------|0---0--3---4---------------|
die If I
e|------ ------ ------ ------|------ ------ ------ ------|
B|---------------------------|-----------5---------------|
G|-------9---7---------------|---------4----7---4--------|
D|--------------9---7--5-----|-------6-------------7---5-|
A|7------------------------7-|---------------------------|
E|---------------------------|---------------------------|



G B
e|------ ------ ------ ------|------ ------ ------ ------|
B|---------------------------|---------------------------|
G|---------------------------|---------------------------|
D|---------------------------|--------------4---4--4H6P4-|
A|--------------5---5--5H7P5-|-------5---6---------------|
E|3---3--6---7---------------|7---7----------------------|
ain't dead already, Ooohh girl, you know the reason why
e|------ ------ ------ ------|------ ------ ------ ------|
B|-----------8---------------|---------------------------|
G|---------7----10-----7-----|---------------------------|
D|----5--9-------------------|--------------7------------|
A|---------------------------|-----------9---------9-----|
E|---------------------------|7---7-/11------------------|




E A B
e|------ ------ ------ ------|------ ------ ------ ------|
B|---------------------------|---------------------------|
G|---------------------------|4---4--4---4------4--4---4-|
D|2------------------------0-|4---4--4---4------4--4---4-|
A|--------------0---0--0H2---|2---2--2---2------2--2---2-|
E|----0--3---4---------------|---------------------------|

e|------ ------ ------ ------|------ ------ ------ --0-3-|
B|---------------------------|-----------------------0-3-|
G|---------------------------|---------------------------|
D|---------------------------|---------------------------|
A|---------------------------|---------------------------|
E|---------------------------|---------------------------|



E7
e|0-3-0- 3-0-3- 0-3-0- 3-0-3-|0-3-0- 3-0-3- 0-3-0- 3-0-3-|
B|0-3-0--3-0-3--0-3-0--3-0-3-|0-3-0--3-0-3--0-3-0--3-0-3-|
G|---------------------------|---------------------------|
D|---------------------------|---------------------------|
A|---------------------------|---------------------------|
E|---------------------------|---------------------------|




e|0-3-0- 3-0-3- 0-3-0- 3-0-3-|0-3-0- 3-0-3- 0-3-0- 3-0-3-|
B|0-3-0--3-0-3--0-3-0--3-0-3-|0-3-0--3-0-3--0-3-0--3-0-3-|
G|---------------------------|---------------------------|
D|---------------------------|---------------------------|
A|---------------------------|---------------------------|
E|---------------------------|---------------------------|



A7
e|0-3-0- 3-0-3- 0-3-0- 3-0-3-|0-3-0- 3-0-3- 0-3-0- 3-0-3-|
B|0-2-0--2-0-2--0-2-0--2-0-2-|0-2-0--2-0-2--0-2-0--2-0-2-|
G|---------------------------|---------------------------|
D|---------------------------|---------------------------|
A|---------------------------|---------------------------|
E|---------------------------|---------------------------|


E7
e|0-3-0- 3-0-3- 0-3-0- 3-0-3-|0-3-0- 3-0-3- 0-3-0- 3-0---|
B|0-3-0--3-0-3--0-3-0--3-0-3-|0-3-0--3-0-3--0-3-0--3-0---|
G|---------------------------|---------------------------|
D|---------------------------|---------------------------|
A|---------------------------|---------------------------|
E|---------------------------|---------------------------|


F#7 B7
e|3----- --0-3- 0-3-0- --0-3-|------ --0-0- 3-0--- 0-----|
B|3--------0-3--0-3-0--3-0-3-|---------0-0--3-0----0-----|
G|---------------------2-----|------------------2----2-0-|
D|---------------------------|---------------------------|
A|---------------------------|---------------------------|
E|---------------------------|---------------------------|


E A B
e|------ 0---0- ------ 0---0-|------ ------ ------ ------|
B|-------0---0---------0---0-|---------------------------|
G|-------0---0---------0---0-|---------------------------|
D|2---2-------------2--------|---------------------------|
A|---------------------------|-------0H1-2------2--2-----|
E|---------------------------|----0----------------------|

e|------ ------ ------ ------|------ ------ ------ --1212|
B|---------------------------|---------------------------|
G|---------------------------|---------------------------|
D|---------------------------|---------------------------|
A|---------------------------|---------------------------|
E|---------------------------|---------------------------|

e|------ ------ ------ ------|------ ------ ------ ------|
B|---------------------------|---------------------------|
G|---------------------------|---------------------------|
D|---------------------------|-----------------------9-9-|
A|---------------------------|---------------------------|
E|---------------------------|---------------------------|





E
e|12--12 ----12 --1212 121212|12--12 ----12 --1212 121212|
B|---------------------------|---------------------------|
G|---------------------------|---------------------------|
D|---------------------------|---------------------------|
A|---------------------------|---------------------------|
E|---------------------------|---------------------------|

e|------ ------ ------ ------|------ ------ ------ ------|
B|---------------------------|12----------------12-------|
G|--------------14-------12H14-------14-----14-----------|
D|14---------14--------14----|---------------------------|
A|---------------------------|---------------------------|
E|---------------------------|---------------------------|





e|12--12 ----12 ------ ------|17---- 17---- 17---- 17----|
B|---------------------------|---------------------------|
G|---------------------------|---------------------------|
D|---------------------------|---------------------------|
A|---------------------------|---------------------------|
E|---------------------------|---------------------------|

e|------ ------ ------ ------|----12 ------ ------ ------|
B12B14R12--------------------|---------------------------|
G|-------14--14------------14B16-----14-----12-----------|
D|---------------------------|---------------------14----|
A|---------------------------|---------------------------|
E|---------------------------|---------------------------|





A7
e|17---- ----12 ------ ------|------ ------ ------ ------|
B|---------------------------|---------------------------|
G|---------------------------|-------12-----------14P12--|
D|---------------------------|12H14-------------14-----14|
A|----------------------10H12|---------------------------|
E|---------------------------|---------------------------|

e|------ ------ ------ ------|------ ------ ------ ------|
B|---------------------------|---------------------------|
G|--------------12-------12H14---------------------12----|
D|-----------14--------14----|14-----14--12--------------|
A|12-------------------------|---------------------------|
E|---------------------------|---------------------------|




E
e|------ ------ ------ ------|------ ------ ------ ------|
B|---------------------------|---------------------------|
G|12------------------14P12--|12-----------------------12|
D|-------14--14-----14-----14|-----------14-------12H14--|
A|---------------------------|---------------10H12-------|
E|---------------------------|---------------------------|

e|------ ------ ------ ------|------ ------ ------ ------|
B|---------------------------|---------------------------|
G14B16R1412------------12----14B16R1412-----12-----------|
D|--------------12-----------|---------------------14----|
A|---------------------------|---------------------------|
E|---------------------------|---------------------------|





e|------ ------ ------ ------|----12 ------ ------ ------|
B|---------------------------|--------------12-----------|
G|14B16--12--12----12-14B1612|---------------------12----|
D|---------------------------|-------------------------14|
A|---------------------------|---------------------------|
E|---------------------------|---------------------------|

e|------ ------ ------ ------|----12 ------ ------ ----12|
B|---------------------------|--------------12-----------|
G|----12-14B1612-------1214B16---------------------------|
D|14----------------14-------|---------------------------|
A|---------------------------|---------------------------|
E|---------------------------|---------------------------|




x X X
e|--------- ---------|
B|-------------------|
G|-------------------|
D|-------------------|
A|-------------------|
E|-------------------|
Yes, I'm


E
e|--------- --------- ---------|--------- --------- ---------|
B|-----------------------------|-----------------------------|
G|--------------------7--7--7--|7----------------------------|
D|--------------------9--9--9--|9----------------------------|
A|-----------------------------|-----------------------------|
E|-----------------------------|-----------------------------|
lonely
e|--------- --------- ---------|--------- --------- ---------|
B|-----------------------------|-----------------------------|
G|-----------------------------|-----------------------------|
D|-----------------------------|----------5-------B-7---R-5--|
A|7----------------------------|-----------------------------|
E|-----------------------------|-----------------------------|




e|--------- --------- ---------|--------- --------- ---------|
B|-----------------------------|-----------------------------|
G|-----------------------------|-----------------------------|
D|-----------------------------|-----------------------------|
A|-----------------------------|-----------------------------|
E|-----------------------------|-----------------------------|
Wanna
e|--------- --------- ---------|--------- --------- ---------|
B|-----------------------------|-----------------------------|
G|-----------------------------|-----------------------------|
D|-----------------------------|-----------------------------|
A|7----------------------------|-----------------------------|
E|-----------------------------|-----------------------------|



e|--------- --------- ---------|--------- --------- ---------|
B|--------------------5--5--5--|5----------------------------|
G|--------------------7--7--7--|7----------------------------|
D|--------------------6--6--6--|6----------------------------|
A|--------------------7--7--7--|7----------------------------|
E|-----------------------------|-----------------------------|
die
e|--------- --------- ---------|--------- --------- ---------|
B|-----------------------------|-----------------------------|
G|--------------------9--------|-----------------------------|
D|----------------9------------|5-B-7---------R-5-B-7---R-5--|
A|7----------------------------|-----------------------------|
E|-----------------------------|-----------------------------|




e|--------- --------- ---------|--------- --------- ---------|
B|-----------------------------|-----------------------------|
G|-----------------------------|-----------------------------|
D|-----------------------------|-----------------------------|
A|-----------------------------|-----------------------------|
E|-----------------------------|-----------------------------|
Yes, I'm
e|--------- --------- ---------|--------- --------- ---------|
B|-----------------------------|-----------------------------|
G|-----------------------------|-----------------------------|
D|-----------------------------|-----------------------------|
A|7----------------------------|-----------------------------|
E|-----------------------------|-----------------------------|



A
e|--------- --------- ---------|--------- --------- ---------|
B|-----------------------------|-----------------------------|
G|--------------------7--7--7--|7----------------------------|
D|--------------------9--9--9--|9----------------------------|
A|-----------------------------|-----------------------------|
E|-----------------------------|-----------------------------|
lonely
e|--------- --------- ---------|--------- --------- ---------|
B|-----------------------------|-----------------------------|
G|-----------------------------|-----------------------------|
D|-----------------------------|5-B-7---------R-5-B-7---R-5-B|
A|-----------------------------|-----------------------------|
E|-----------------------------|-----------------------------|




e|--------- --------- ---------|--------- --------- ---------|
B|-----------------------------|-----------------------------|
G|-----------------------------|-----------------------------|
D|-----------------------------|-----------------------------|
A|-----------------------------|-----------------------------|
E|-----------------------------|-----------------------------|
wanna
e|--------- --------- ---------|--------- --------- ---------|
B|-----------------------------|-----------------------------|
G|-----------------------------|-----------------------------|
D|-----------------------------|-----------------------------|
A|7----------------------------|-----------------------------|
E|-----------------------------|-----------------------------|



E
e|--------- --------- ---------|--------- --------- ---------|
B|-----------------------------|-----------------------------|
G|--------------------7--7--7--|7----------------------------|
D|--------------------9--9--9--|9----------------------------|
A|-----------------------------|-----------------------------|
E|-----------------------------|-----------------------------|
die
e|--------- --------- ---------|--------- --------- ---------|
B|-----------------------------|-----------------------------|
G|--------------------9--------|-----------------------------|
D|----------------9------------|5-B-7---------R-5-B-7---R-5--|
A|7----------------------------|-----------------------------|
E|-----------------------------|-----------------------------|




e|--------- --------- ---------|--------- --------- ---------|
B|-----------------------------|-----------------------------|
G|--------------------7--7--7--|7----------------------------|
D|--------------------9--9--9--|9----------------------------|
A|-----------------------------|-----------------------------|
E|-----------------------------|-----------------------------|

e|--------- --------- ---------|--------- --------- ---------|
B|-----------------------------|-----------------------------|
G|-----------------------------|-----------------------------|
D|-----------------------------|-----------------------------|
A|7----------------------------|-----------------------------|
E|-----------------------------|-----------------------------|



G
e|--------- --------- ---------|--------- --------- ---------|
B|-----------------------------|-----------------------------|
G|-----------------------------|--------------------------6-/|
D|-----------------------------|----------5------------------|
A|--------------------5--------|7-------------------7--------|
E|3------/--7------------------|-----------------------------|

e|--------- --------- ---------|--------- --------- ---------|
B|--------------------8--------|-----------------------------|
G|-----------------------------|-----------------------------|
D|-----------------------------|7--B--9----------------------|
A|-----------------------------|-----------------------------|
E|-----------------------------|-----------------------------|




B
e|------7-\ 5-------- 4--------|3-----2-- --------- ---------|
B|------7-\-5---------4--------|3-----2----------------------|
G|8-------\-6---------4--------|3-----2----------------------|
D|-----------------------------|-----------------------------|
A|-----------------------------|-----------------------------|
E|-----------------------------|-----------------------------|





E7
e|--------- ---------|--------- --------- ---------|
B|-------------------|5----------------------------|
G|-------------------|7----------------------------|
D|-------------------|6----------------------------|
A|-------------------|7----------------------------|
E|-------------------|0-------------------4--------|

e|--------- ---------|--------- --------- ---------|
B|-------------------|-----------------------------|
G|-------------------|--------------------9--------|
D|-------------------|----------------9------------|
A|-------------------|7----------------------------|
E|-------------------|-----------------------------|




A7 E7
e|--------- --------- ---------|--------- --------- ---------|
B|5----------------------------|5----------------------------|
G|6----------------------------|7----------------------------|
D|5----------------------------|6----------------------------|
A|0----------------------------|7----------------------------|
E|-----------------------------|-----------------------------|

e|--------- --------- ---------|--------- --------- ---------|
B|-----------------------------|-----------------------------|
G|-----------------------------|-----------------------------|
D|5-B-7---------R-5-B-7--R--5--|-----------------------------|
A|-----------------------------|7---------------5------------|
E|-----------------------------|--------------------7--------|





B7
e|--------- --------- ---------|
B|-----------------------------|
G|8----------------------------|
D|7----------------------------|
A|9----------------------------|
E|7----------------------------|
In the morning
e|--------- --------- ---------|
B|-----------------------------|
G|-----------------------------|
D|-----------------------------|
A|-----------------------------|
E|7---------------7---7--------|




E
e|--------- --------- ---------|--------- --------- ---------|
B|-----------------------------|-----------------------------|
G|--------------------7--7--7--|7----------------------------|
D|--------------------9--9--9--|9----------------------------|
A|-----------------------------|-----------------------------|
E|-----------------------------|-----------------------------|

e|--------- --------- ---------|--------- --------- ---------|
B|-----------------------------|-----------------------------|
G|-----------------------------|-----------------------------|
D|-----------------------------|----------5-------B-7---R-5--|
A|7----------------------------|-----------------------------|
E|-----------------------------|-----------------------------|
...........................Fade............................



e|--------- --------- ---------|--------- --------- ---------|
B|-----------------------------|-----------------------------|
G|-----------------------------|-----------------------------|
D|-----------------------------|-----------------------------|
A|-----------------------------|-----------------------------|
E|-----------------------------|-----------------------------|

e|--------- --------- ---------|--------- --------- ---------|
B|-----------------------------|-----------------------------|
G|-----------------------------|-----------------------------|
D|-----------------------------|-----------------------------|
A|7----------------------------|-----------------------------|
E|-----------------------------|-----------------------------|
...........................................................


e|--------- --------- ---------|--------- --------- ---------|
B|-----------------------------|-----------------------------|
G|--------------------7--7--7--|7----------------------------|
D|--------------------6--6--6--|6----------------------------|
A|-----------------------------|-----------------------------|
E|-----------------------------|-----------------------------|

e|--------- --------- ---------|--------- --------- ---------|
B|-----------------------------|-----------------------------|
G|-----------------------------|-----------------------------|
D|-----------------------------|5-B-7---------R-5-B-7---R-5--|
A|-----------------------------|-----------------------------|
E|-----------------------------|-----------------------------|
...........................................................



e|--------- --------- ---------|--------- --------- ---------|
B|-----------------------------|-----------------------------|
G|-----------------------------|-----------------------------|
D|-----------------------------|-----------------------------|
A|-----------------------------|-----------------------------|
E|-----------------------------|-----------------------------|

e|--------- --------- ---------|--------- --------- ---------|
B|-----------------------------|-----------------------------|
G|-----------------------------|-----------------------------|
D|-----------------------------|-----------------------------|
A|7----------------------------|-----------------------------|
E|-----------------------------|-----------------------------|
...........................................................







B Bend
R Release
/ slide up
\ slide down
H hammer-on
P pull-off
~ vibrato
+ harmonic
x Mute note
. - play note like a dot in standard notation
^ - ties two notes together
(. Pause

pjvill

Submitted by pjvill at Thu 15 Dec, 2005 10:13 am

Author: ?
Composer: ?
Publisher: ?
Language: English

Reactions

CommonCrawl [Bot]

Follow Muzikum