The Beatles

The Beatles
With A Little Help From My Friends Ver 3 (Guitar tab)

----------------------------------------------------------------------
THE BEATLES - WITH A LITTLE HELP FROM MY FRIENDS (Lennon/McCartney)
From SGT PEPPER'S LONELY HEARTS CLUB BAND. Released
on June 1st 1967.

----------------------------------------------------------------------

Tabbed by PJVillanueva



What would you think if I sang out of tune,
Would you stand up and walk out on me.
Lend me your ears and I'll sing you a song,
And I'll try not to sing out of key.

I get by with a little help from my friends,
I get high with a little help from my friends,
Going to try with a little help from my friends.

What do I do when my love is away.
(Does it worry you to be alone)
How do I feel by the end of the day
(Are you sad because you're on your own)
No I get by with a little help from my friends,
Do you need anybody,
I need somebody to love.
Could it be anybody
I want somebody to love.
Would you believe in a love at first sight,
Yes I'm certain that it happens all the time.
What do you see when you turn out the light,
I can't tell you, but I know it's mine.
Oh I get by with a little help from my friends,
Do you need anybody,
I just need somebody to love,
Could it be anybody,
I want somebody to love.
I get by with a little help from my friends,
Yes I get by with a little help from my friends,
With a little help from my friends.






C D
e|0----- 0----- 0----- 0-----|2----- 2----- 2----- 2-----|
B|1------1------1------1-----|3------3------3------3-----|
G|0------0------0------0-----|2------2------2------2-----|
D|---------------------------|0------0------0------0-----|
A|3------3------3------3-----|---------------------------|
E|---------------------------|---------------------------|
Bi..........................lly........................

E
e|4----- ------ 0-0--- ----0-|--0--- ----0- --0--- ------|
B|5-------------0------0---0-|-------0------4------4-----|
G|4------4------8----------8\|6------6------4------4-----|
D|---------------------------|---------------------------|
A|---------------------------|---------------------------|
E|0--------------------------|---------------------------|
Shears............................

E B F#m
e|4----- 4----- ------ ------|2----- 2----- 2----- 2-----|
B|5------5------4------4-----|2------2------2------2-----|
G|4------4------4------4-----|2------2------2------2-----|
D|6-------------4------4-----|---------------------------|
A|7-------------6------------|4--------------------------|
E|--------------7------------|--------------2------------|
What would you think If I sang out of tune? Would you stand

B E
e|2----- 2----- 2----- 2-----|4----- 4----- 4----- 4-----|
B|2------2------4------4-----|5------5------5------5-----|
G|2------2------4------4-----|4------4------4------4-----|
D|4--------------------------|-----------4---------------|
A|--------------2------------|------------------7--4-----|
E|---------------------------|0------------------------7-|
up and walk out on me?

B F#m
e|4----- 4----- 2----- 2-----|2----- 2----- 2----- 2-----|
B|5------5------4------4-----|2------2------2------2-----|
G|4------4------4------4-----|2------2------2------2-----|
D|---------------------------|------------------2--------|
A|--------------2------------|------------2H4------------|
E|0--------------------------|2--------------------------|
Lend me your ears and I'll sing you a song, and I'll try

B E
e|2----- 2----- 2----- 2-----|4----- 4----- 4----- 4-----|
B|2------2------4------4-----|5------5------5------5-----|
G|2------2------4------4-----|4------4------4------4-----|
D|---------------------------|-------2------2------2-----|
A|--------------2------------|---------------------------|
E|2--------------------------|0--------------------------|
not to sing out of key Oh I get by

D A E
e|2----- 2----- 0----- 0-----|4----- 4----- 4----- 4-----|
B|3------3------2------2-----|5------5------5------5-----|
G|2------2------2------2-----|4------4------4------4-----|
D|0------0-------------------|---------------------------|
A|--------------0------0-----|---------------------------|
E|---------------------------|0------0------0------0-----|
with a little help from my friends I get high

D A E
e|2----- 2----- 0----- 0-----|4----- 4----- 4----- 4-----|
B|3------3------2------2-----|5------5------5------5-----|
G|2------2------2------2-----|4------4------4------4-----|
D|0------0-------------------|2------0-------------------|
A|--------------0------0-----|--------------4------2-----|
E|---------------------------|---------------------------|
with a little help from my friends going to
A E
e|0----- 0----- 0----- 0-----|4----- 4----- 4----- 4-----|
B|2------2------2------2-----|5------5------5------5-----|
G|2------2------2------2-----|4------4------4------4-----|
D|--------------2------------|----2--0-------------------|
A|0------4-------------4---2-|--------------4------2---0-|
E|---------------------------|0--------------------------|
try with a little help from my friends
e|------ ------ ------ ------|----7\ 5----- 4----- ------|
B|---------------------------|----9\-7------5------7-P-5-|
G|---------------------------|---------------------4-----|
D|---------------------------|---------------------------|
A|---------------------------|---------------------------|
E|---------------------------|---------------------------|

(.
B
e|2----- ------ ------ ------|------ ------ ------ ------|
B|4--------------------------|---------------------------|
G|4--------------------------|---------------------------|
D|---------------------------|---------------------------|
A|2--------------------------|---------------------------|
E|---------------------------|---------------------------|

e|------ ------ ------ ------|------ ------ ------ ------|
B|7--------------------------|---------------------------|
G|4--------------------------|---------------------------|
D|---------------------------|---------------------------|
A|---------------------------|---------------------------|
E|---------------------------|---------------------------|



E B F#m
e|4----- 4----- 2----- 2-----|2----- 2----- 2----- 2-----|
B|5------5------4------4-----|2------2------2------2-----|
G|4------4------4------4-----|2------2------2------2-----|
D|---------------------------|-----------6------4--2-----|
A|--------------2------------|-------------------------4-|
E|0--------------------------|2--------------------------|
What do I do when my love is away? (Does it worry

B E
e|2----- 2----- 2----- 2-----|4----- 4----- 4----- 4-----|
B|2------2------4------4-----|5------5------5------5-----|
G|2------2------4------4-----|4------4------4------4-----|
D|---------------------------|-----------4--2------------|
A|--------------2------------|------------------4--2-----|
E|2--------------------------|0--------------------------|
you to be alone?)

B F#m
e|4----- 4----- 2----- 2-----|2----- 2----- 2----- 2-----|
B|5------5------4------4-----|2------2------2------2-----|
G|4------4------4------4-----|2------2------2------2-----|
D|---------------------------|-----------6------4--2-----|
A|--------------2------------|-------------------------4-|
E|0--------------------------|2--------------------------|
How do I feel by the end of the day (are you sad

B E
e|2----- 2----- 2----- 2-----|4----- 4----- 4----- 4-----|
B|2------2------4------4-----|5------5------5------5-----|
G|2------2------4------4-----|4------4------4------4-----|
D|---------------------------|-------2------2------2-----|
A|--------------2------------|---------------------------|
E|2--------------------------|0--------------------------|
beacause you're on your own?) No I get by

D A E
e|2----- 2----- 0----- 0-----|4----- 4----- 4----- 4-----|
B|3------3------2------2-----|5------5------5------5-----|
G|2------2------2------2-----|4------4------4------4-----|
D|0------0-------------------|---------------------------|
A|--------------0------0-----|---------------------------|
E|---------------------------|0------0------0------0-----|
with a little help from my friends I get high

D A E
e|2----- 2----- 0----- 0-----|4----- 4----- 4----- 4-----|
B|3------3------2------2-----|5------5------5------5-----|
G|2------2------2------2-----|4------4------4------4-----|
D|0------0-------------------|---------------------------|
A|--------------0------0-----|---------------------------|
E|---------------------------|0------0------0------0-----|
with a little help from my friends hmmmm gonna try

A E
e|0----- 0----- 0----- 0-----|4----- 4----- 4----- 4-----|
B|2------2------2------2-----|5------5------5------5-----|
G|2------2------2------2-----|4------4------4------4-----|
D|--------------2------------|---------------------------|
A|0------4-------------4---0-|---------------------------|
E|---------------------------|0------0------0------0-----|
with a little help from my friends (Do you need

C#m7 F#
e|4----- 4----- 4----- 4-----|2----- 2----- 2----- 2-----|
B|5------5------5------5-----|2------2------2------2-----|
G|4------4------4------4-----|3------3------3------3-----|
D|---------------------------|4------4---2---------------|
A|4----------4---------------|------------------6--4-----|
E|------------------7------4-|---------------------------|
anybody) I
E D A
e|4----- 4----- 2----- 2-----|0----- 0----- 0----- 0-----|
B|5------5------3------3-----|2------2------2------2-----|
G|4------4------2------2-----|2------2------2------2-----|
D|2------2------0------0-----|---------------------------|
A|---------------------------|0------0------0------0-----|
E|---------------------------|---------------------------|
need somebody to love (Could it be

C#m7 F#
e|4----- 4----- 4----- 4-----|2----- 2----- 2----- 2-----|
B|5------5------5------5-----|2------2------2------2-----|
G|4------4------4------4-----|3------3------3------3-----|
D|---------------------------|4------4---2---------------|
A|4----------4---------------|------------------6--4-----|
E|------------------7------4-|---------------------------|
anybody) I

E D A
e|4----- 4----- 2----- 2-----|0----- 0----- 0----- 0-----|
B|5------5------3------3-----|2------2------2------2-----|
G|4------4------2------2-----|2------2------2------2-----|
D|2------2------0------0-----|---------------------------|
A|---------------------------|0------0------0------0-----|
E|---------------------------|-----0------0------0-----0-|
want somebody to love

E B F#m
e|4----- 4----- 2----- 2-----|2----- 2----- 2----- 2-----|
B|5------5------4------4-----|2------2------2------2-----|
G|4------4------4------4-----|2------2------2------2-----|
D|---------------------------|------------------2--------|
A|--------------2------------|------------2H4------------|
E|0--------------------------|2--------------------------|
( Would you believe in a love at first sight) Yes I'm cer..

B E
e|2----- 2----- 2----- 2-----|4----- 4----- 4----- 4-----|
B|2------2------4------4-----|5------5------5------5-----|
G|2------2------4------4-----|4------4------4------4-----|
D|---------------------------|-----------4---------------|
A|--------------2------------|--------------7---4--------|
E|2--------------------------|0--------------------7-----|
..tain that it happens all the time

B F#m
e|4----- 4----- 2----- 2-----|2----- 2----- 2----- 2-----|
B|5------5------4------4-----|2------2------2------2-----|
G|4------4------4------4-----|2------2------2------2-----|
D|---------------------------|------------------2--------|
A|--------------2------------|------------2H4------------|
E|0--------------------------|2--------------------------|
(What do you see when you turn out the light?) I can't tell

B E
e|2----- 2----- 2----- 2-----|4----- 4----- 4----- 4-----|
B|2------2------4------4-----|5------5------5------5-----|
G|2------2------4------4-----|4------4------4------4-----|
D|---------------------------|-------2------2------2-----|
A|--------------2------------|---------------------------|
E|2--------------------------|0--------------------------|
you but I know it's mine Ohhh I get by

D A E
e|2----- 2----- 0----- 0-----|4----- 4----- 4----- 4-----|
B|3------3------2------2-----|5------5------5------5-----|
G|2------2------2------2-----|4------4------4------4-----|
D|0------0-------------------|---------------------------|
A|--------------0------0-----|---------------------------|
E|---------------------------|0------0------0------0-----|
with a little help from my friends Hmmm get high

D A E
e|2----- 2----- 0----- 0-----|4----- 4----- 4----- 4-----|
B|3------3------2------2-----|5------5------5------5-----|
G|2------2------2------2-----|4------4------4------4-----|
D|0------0-------------------|2------0-------------------|
A|--------------0------0-----|--------------4------2-----|
E|---------------------------|---------------------------|
with a little help from my friends Ohhh I'm gonna try

A E
e|0----- 0----- 0----- 0-----|4----- 4----- 4----- 4-----|
B|2------2------2------2-----|5------5------5------5-----|
G|2------2------2------2-----|4------4------4------4-----|
D|--------------2------------|---------------------------|
A|0------4-------------4---0-|---------------------------|
E|---------------------------|0------0------0------0-----|
with a little help from my friends (Do you need

C#m7 F#
e|4----- 4----- 4----- 4-----|2----- 2----- 2----- 2-----|
B|5------5------5------5-----|2------2------2------2-----|
G|4------4------4------4-----|3------3------3------3-----|
D|---------------------------|4------4---2---------------|
A|4----------4---------------|------------------6--4-----|
E|------------------7------4-|---------------------------|
anybody?) I

E D A
e|4----- 4----- 2----- 2-----|0----- 0----- 0----- 0-----|
B|5------5------3------3-----|2------2------2------2-----|
G|4------4------2------2-----|2------2------2------2-----|
D|2------2------0------0-----|---------------------------|
A|---------------------------|0------0------0------0-----|
E|---------------------------|---------------------------|
just need someone to love (Could it be

C#m7 F#
e|4----- 4----- 4----- 4-----|2----- 2----- 2----- 2-----|
B|5------5------5------5-----|2------2------2------2-----|
G|4------4------4------4-----|3------3------3------3-----|
D|---------------------------|4------4---2---------------|
A|4----------4---------------|------------------6--4-----|
E|------------------7------4-|---------------------------|
anybody?) I

E D A
e|4----- 4----- 2----- 2-----|0----- 0----- 0----- 0-----|
B|5------5------3------3-----|2------2------2------2-----|
G|4------4------2------2-----|2------2------2------2-----|
D|2------2------0------0-----|---------------------------|
A|---------------------------|0------0------0------0-----|
E|---------------------------|---------------------------|
want somebody to love Ohhh I get by

D A E
e|2----- 2----- 0----- 0-----|4----- 4----- 4----- 4-----|
B|3------3------2------2-----|5------5------5------5-----|
G|2------2------2------2-----|4------4------4------4-----|
D|0------0-------------------|---------------------------|
A|--------------0------0-----|-------2------2------2-----|
E|---------------------------|0--------------------------|
with a little help from my friends Hmmm gonna try

D A E
e|2----- 2----- 0----- 0-----|4----- 4----- 4----- 4-----|
B|3------3------2------2-----|5------5------5------5-----|
G|2------2------2------2-----|4------4------4------4-----|
D|0------0-------------------|-------2------2------2-----|
A|--------------0------0-----|---------------------------|
E|---------------------------|0--------------------------|
with a little help from my friends Oh I get high

A E
e|------ ------ ------ ------|4----- 4----- 4----- 4-----|
B|2------2------2------2-----|5------5------5------5-----|
G|2------2------2------2-----|4------4------4------4-----|
D|2------2------2------2-----|---------------------------|
A|0------4-------------4---0-|---------------------------|
E|---------------------------|0------0------0------0-----|
with a little help from my friends Yes I get by

D A
e|2----- ------ ------ ------|0----- ------ ------ ------|
B|3--------------------------|2--------------------------|
G|2--------------------------|2--------------------------|
D|0--------------------------|2--------------------------|
A|---------------------------|0--------------------------|
E|---------------------------|---------------------------|
with a little help from my friends with a little help from my friends

C D
e|0----- 0----- 0----- 0-----|2----- 2----- 2----- 2-----|
B|1------1------1------1-----|3------3------3------3-----|
G|0------0------0------0-----|2------2------2------2-----|
D|2------2------2------2-----|0------0------0------0-----|
A|---------------------------|0------0------0------0-----|
E|3------3------3------3-----|---------------------------|

e|------ ------ ------ ------|------ ------ ------ ------|
B|1------1------1------1-----|3------3------3------3-----|
G|0------0------0------0-----|2------2------2------2-----|
D|2------2------2------2-----|0------0------0------0-----|
A|3------2------0------------|---------------------------|
E|---------------------3-----|2------2------2------2-----|

(.
E
e|0----- ------ ------ ------|------ ------ ------ ------|
B|0--------------------------|---------------------------|
G|1--------------------------|---------------------------|
D|2--------------------------|---------------------------|
A|2--------------------------|---------------------------|
E|0--------------------------|---------------------------|


e|------ ------ ------ ------|------ ------ ------ ------|
B|---------------------------|---------------------------|
G|---------------------------|---------------------------|
D|2--------------------------|---------------------------|
A|2--------------------------|---------------------------|
E|0--------------------------|---------------------------|







B Bend
R Release
/ slide up
\ slide down
H hammer-on
P pull-off
~ vibrato
+ harmonic
x Mute note
. - play note like a dot in standard notation
^ - ties two notes together
(. Pause

pjvill

Submitted by pjvill at Thu 15 Dec, 2005 10:12 am

Author: ?
Composer: ?
Publisher: ?
Language: English

Reactions

CommonCrawl [Bot]

Follow Muzikum