The Beatles

The Beatles
What You're Doing (Guitar tab)

-----------------------------------------------------------------
THE BEATLES - WHAT YOU'RE DOING (Lennon/McCartney) From BEATLES
FOR SALE album. Released December 4th 1964.

-----------------------------------------------------------------

Tabbed by:PJVillanueva







Look what you're doing, I'm feeling blue and lonely,
Would it be too much to ask you,
What you're doing to me?

You got me running and there's no fun in it,
Why should it be so much to ask of you,
What you're doing to me?

I've been waiting here for you,
Wond'ring what you're gonna do,
Should you need a love that's true,
It's me.

Please stop your lying, you've got me crying, girl,
Why should it be so much to ask of you,
What you're doing to me?

What you're doing to me.




X x X X x x x X x X X x x x
e|------- ------- ------- -------|------- ------- ------- -------|
B|-------------------------------|-------------------------------|
G|-------------------------------|-------------------------------|
D|-------------------------------|-------------------------------|
A|-------------------------------|-------------------------------|
E|-------------------------------|-------------------------------|2 times



D G
e|2------ 2------ 2---2-- 2---2--|3------ 3------ 3---3-- 3---3--|
B|3-------3-------3---3---3---3--|3-------3-------3---3---3---3--|
G|2-------2-------2---2---2---2--|0-------0-------0---0---0---0--|
D|0-------0-------0---0---0---0--|0-------0-------0---0---0---0--|
A|-------------------------------|2-------2-------2---2---2---2--|
E|-------------------------------|3-------3-------3---3---3---3--|

e|------- ------- ------- -------|------- ------- ------- -------|
B|-------------------------------|-------------------------------|
G|----------------4---2----------|-------------------------------|
D|0----------4------------4---2--|--------2---0---2---4-------0--|
A|-------------------------------|-------------------------------|
E|-------------------------------|-------------------------------|


D G
e|2------ 2------ 2---2-- 2------|3------ 3------ 3---3-- 3---3--|
B|3-------3-------3---3---3------|3-------3-------3---3---3---3--|
G|2-------2-------2---2---2------|0-------0-------0---0---0---0--|
D|0-------0-------0---0---0------|0-------0-------0---0---0---0--|
A|-------------------------------|2-------2-------2---2---2---2--|
E|-------------------------------|3-------3-------3---3---3---3--|

e|------- ------- ------- -------|------- ------- ------- -------|
B|-------------------------------|-------------------------------|
G|----------------4---2----------|-------------------------------|
D|-----------4------------4---2--|--------2---0---2---4-------0--|
A|-------------------------------|-------------------------------|
E|-------------------------------|-------------------------------|


D G D
e|2------ 2---2-- 2---2-- 2---3--|3------ 3------ 3---3-- 3---2--|
B|3-------3---3---3---3---3---3--|3-------3-------3---3---3---3--|
G|2-------2---2---2---2---2---0--|0-------0-------0---0---0---2--|
D|0-------0---0---0---0---0---0--|0-------0-------0---0---0---0--|
A|----------------------------2--|2-------2-------2---2---2------|
E|----------------------------3--|3-------3-------3---3---3------|
Look what you're doing
e|------- ------- ------- -------|------- ------- ------- -------|
B|-------------------------------|-------------------------------|
G|----------------4---2----------|-------------------------------|
D|-----------4------------4---2--|--------2---0---2---4-------0--|
A|-------------------------------|-------------------------------|
E|-------------------------------|-------------------------------|


G
e|2------ 2------ 2---2-- 2---2--|3------ 3------ 3---3-- 3---3--|
B|3-------3-------3---3---3---3--|3-------3-------3---3---3---3--|
G|2-------2-------2---2---2---2--|0-------0-------0---0---0---0--|
D|0-------0-------0---0---0---0--|0-------0-------0---0---0---0--|
A|-------------------------------|2-------2-------2---2---2---2--|
E|-------------------------------|3-------3-------3---3---3---3--|
I'm feelin' blue and lonely would it
e|------- ------- ------- -------|------- ------- ------- -------|
B|-------------------------------|-------------------------------|
G|----------------4---2----------|-------------------------------|
D|-----------4------------4---2--|--------2---0---2---4-------0--|
A|-------------------------------|-------------------------------|
E|-------------------------------|-------------------------------|



Bm G
e|2------ 2---2-- 2---2-- 2------|3------ 3---3-- 3---3-- 3------|
B|3-------3---3---3---3---3------|3-------3---3---3---3---3------|
G|4-------4---4---4---4---4------|0-------0---0---0---0---0------|
D|4-------4---4---4---4---4------|0-------0---0---0---0---0------|
A|2-------2---2---2---2---2------|2-------2---2---2---2---2------|
E|-------------------------------|3-------3---3---3---3---3------|
be too much to ask of you what you're
e|------- ----2-- ----2-- ----2--|------- ----3-- ----3-- ----3--|
B|------------3-------3-------3--|------------3-------3-------3--|
G|------------4-------4-------4--|------------4-------4-------4--|
D|-------------------------------|-------------------------------|
A|-------------------------------|-------------------------------|
E|-------------------------------|-------------------------------|


D
e|3------ 3---3-- 3---3-- 3------|2------ 2---2-- 2---2-- 2------|
B|3-------3---3---3---3---3------|3-------3---3---3---3---3------|
G|0-------0---0---0---0---0------|2-------2---2---2---2---2------|
D|0-------0---0---0---0---0------|0-------0---0---0---0---0------|
A|2-------2---2---2---2---2------|-------------------------------|
E|3-------3---3---3---3---3------|-------------------------------|
doin' to me
e|------- ----3-- ----3-- -------|------- ------- ------- -------|
B|------------3-------3----------|-------------------------------|
G|------------4-------4----------|----------------4---2----------|
D|-------------------------------|0-----------4-----------4---2--|
A|-------------------------------|-------------------------------|
E|-------------------------------|-------------------------------|


G D
e|3------ 3---3-- 3---3-- 3---0--|2------ 2---2-- 2---2-- 2---3--|
B|3-------3---3---3---3---3---0--|3-------3---3---3---3---3---3--|
G|0-------0---0---0---0---0---0--|2-------2---2---2---2---2---0--|
D|0-------0---0---0---0---0------|0-------0---0---0---0---0---0--|
A|2-------2---2---2---2---2------|-------------------------------|
E|3-------3---3---3---3---3------|-------------------------------|
You got me
e|------- ------- ------- -------|------- ------- ------- -------|
B|-------------------------------|-------------------------------|
G|-------------------------------|----------------4---2----------|
D|--------2---0---2---4----------|------------4-----------4---2--|
A|-------------------------------|-------------------------------|
E|-------------------------------|-------------------------------|


G D
e|3------ 3---3-- 3---3-- 3---3--|2------ 2---2-- 2---2-- 2------|
B|3-------3---3---3---3---3---3--|3-------3---3---3---3---3------|
G|0-------0---0---0---0---0---0--|2-------2---2---2---2---2------|
D|0-------0---0---0---0---0---0--|0-------0---0---0---0---0------|
A|2-------2---2---2---2---2---2--|-------------------------------|
E|3-------3---3---3---3---3---3--|-------------------------------|
runnin' And there's no


e|------- ------- ------- -------|------- ------- ------- -------|
B|-------------------------------|-------------------------------|
G|-------------------------------|----------------4---2----------|
D|--------2---0---2---4-------0--|------------4-----------4---2--|
A|-------------------------------|-------------------------------|
E|-------------------------------|-------------------------------|

G Bm
e|3------ 3------ 3---3-- 3---3--|2------ 2------ 2---2-- 2---2--|
B|3-------3-------3---3---3---3--|3-------3-------3---3---3---3--|
G|0-------0-------0---0---0---0--|4-------4-------4---4---4---4--|
D|0-------0-------0---0---0---0--|4-------4-------4---4---4---4--|
A|2-------2-------2---2---2---2--|2-------2-------2---2---2---2--|
E|3-------3-------3---3---3---3--|-------------------------------|
fun in it why should it be so much to
e|------- ------- ------- -------|------- ----2-- ----2-- ----2--|
B|-------------------------------|------------3-------3-------3--|
G|-------------------------------|------------4-------4-------4--|
D|--------2---0---2---4-------0--|-------------------------------|
A|-------------------------------|-------------------------------|
E|-------------------------------|-------------------------------|



G
e|3------ 3------ 3---3-- 3---3--|3------ 3------ 3---3-- 3---3--|
B|3-------3-------3---3---3---3--|3-------3-------3---3---3---3--|
G|0-------0-------0---0---0---0--|0-------0-------0---0---0---0--|
D|0-------0-------0---0---0---0--|0-------0-------0---0---0---0--|
A|2-------2-------2---2---2---2--|2-------2-------2---2---2---2--|
E|3-------3-------3---3---3---3--|3-------3-------3---3---3---3--|
ask of you what you're doin' to
e|------- ----3-- ----3-- ----3--|------- ----3-- ----3-- -------|
B|------------3-------3-------3--|------------3-------3----------|
G|------------4-------4-------4--|------------4-------4----------|
D|-------------------------------|-------------------------------|
A|-------------------------------|-------------------------------|
E|-------------------------------|-------------------------------|




D G
e|2------ 2------ 2---2-- 2---2--|3------ 3------ 3---3-- 3---3--|
B|3-------3-------3---3---3---3--|3-------3-------3---3---3---3--|
G|2-------2-------2---2---2---2--|0-------0-------0---0---0---0--|
D|0-------0-------0---0---0---0--|0-------0-------0---0---0---0--|
A|-------------------------------|2-------2-------2---2---2---2--|
E|-------------------------------|3-------3-------3---3---3---3--|
me I've been waiting
e|------- ------- ------- -------|------- ----3-- ----3-- ----3--|
B|-------------------------------|------------3-------3-------3--|
G|----------------4---2----------|------------4-------4-------4--|
D|0-----------4-----------4------|-------------------------------|
A|-------------------------------|-------------------------------|
E|-------------------------------|-------------------------------|



Bm G
e|2------ 2------ 2---2-- 2------|3------ 3------ 3---3-- 3------|
B|3-------3-------3---3---3------|3-------3-------3---3---3------|
G|4-------4-------4---4---4------|0-------0-------0---0---0------|
D|4-------4-------4---4---4------|0-------0-------0---0---0------|
A|2-------2-------2---2---2------|2-------2-------2---2---2------|
E|-------------------------------|3-------3-------3---3---3------|
here for you wond'rin' what you're
e|------- ----2-- ----2-- ----2--|------- ----3-- ----3-- ----3--|
B|------------3-------3-------3--|------------3-------3-------3--|
G|------------4-------4-------4--|------------4-------4-------4--|
D|-------------------------------|-------------------------------|
A|-------------------------------|-------------------------------|
E|-------------------------------|-------------------------------|



Bm Em
e|2------ 2------ 2---2-- 2---0--|0------ 0------ 0---0-- 0---0--|
B|3-------3-------3---3---3---0--|0-------0-------0---0---0---0--|
G|4-------4-------4---4---4---0--|0-------0-------0---0---0---0--|
D|4-------4-------4---4---4------|2-------2-------2---2---2---2--|
A|2-------2-------2---2---2------|2-------2-------2---2---2---2--|
E|-------------------------------|0-------0-------0---0---0---0--|
gonna do Should you need a
e|------- ----2-- ----2-- ----0--|------- ----0-- ----0-- ----0--|
B|------------3-------3-------0--|------------0-------0-------0--|
G|------------4-------4-------0--|------------0-------0-------0--|
D|-------------------------------|-------------------------------|
A|-------------------------------|-------------------------------|
E|-------------------------------|-------------------------------|



A
e|0------ 0------ 0---0-- 0---0--|0------ ------- ------- -------|
B|0-------0-------0---0---0---0--|2------------------------------|
G|0-------0-------0---0---0---0--|2------------------------------|
D|2-------2-------2---2---2------|2------------------------------|
A|2-------2-------2---2---2------|0------------------------------|
E|0-------0-------0---0---0------|-------------------------------|
love that's true it's me
e|------- ----0-- ----0-- ----0--|0------ ------- ------- -------|
B|------------0-------0-------0--|2------------------------------|
G|------------0-------0-------0--|2------------------------------|
D|-------------------------------|-------------------------------|
A|-------------------------------|-------------------------------|
E|-------------------------------|-------------------------------|



D
e|------- ------- ------- -------|2------ 2------ 2---2-- 2---2--|
B|-------------------------------|3-------3-------3---3---3---3--|
G|-------------------------------|2-------2-------2---2---2---2--|
D|-------------------------------|0-------0-------0---0---0---0--|
A|-------------------------------|-------------------------------|
E|-------------------------------|-------------------------------|
Please stop your
e|------- ------- ------- -------|------- ------- ------- -------|
B|-------------------------------|-------------------------------|
G|-------------------------------|----------------4---2----------|
D|-------------------------------|0-----------4-----------4---2--|
A|-------------------------------|-------------------------------|
E|-------------------------------|-------------------------------|



G D
e|3------ 3------ 3---3-- 3---2--|2------ 2------ 2---2-- 2---3--|
B|3-------3-------3---3---3---3--|3-------3-------3---3---3---3--|
G|0-------0-------0---0---0---2--|2-------2-------2---2---2---0--|
D|0-------0-------0---0---0---0--|0-------0-------0---0---0---0--|
A|2-------2-------2---2---2------|-------------------------------|
E|3-------3-------3---3---3------|-------------------------------|
lying You've got me
e|------- ------- ------- -------|------- ------- ------- -------|
B|-------------------------------|-------------------------------|
G|-------------------------------|----------------4---2----------|
D|--------2---0---2---4-------0--|------------4-----------4---2--|
A|-------------------------------|-------------------------------|
E|-------------------------------|-------------------------------|



G Bm
e|3------ 3------ 3---3-- 3---3--|2------ 2------ 2---2-- 2---2--|
B|3-------3-------3---3---3---3--|3-------3-------3---3---3---3--|
G|0-------0-------0---0---0---0--|4-------4-------4---4---4---4--|
D|0-------0-------0---0---0---0--|4-------4-------4---4---4---4--|
A|2-------2-------2---2---2---2--|2-------2-------2---2---2---2--|
E|3-------3-------3---3---3---3--|-------------------------------|
crying girl why should it be so much to
e|------- ------- ------- -------|------- ----2-- ----2-- ----2--|
B|-------------------------------|------------3-------3-------3--|
G|-------------------------------|------------4-------4-------4--|
D|--------2---0---2---4-------0--|-------------------------------|
A|-------------------------------|-------------------------------|
E|-------------------------------|-------------------------------|



G
e|3------ 3------ 3---3-- 3---3--|3------ 3------ 3---3-- 3---3--|
B|3-------3-------3---3---3---3--|3-------3-------3---3---3---3--|
G|0-------0-------0---0---0---0--|0-------0-------0---0---0---0--|
D|0-------0-------0---0---0---0--|0-------0-------0---0---0---0--|
A|2-------2-------2---2---2---2--|2-------2-------2---2---2---2--|
E|3-------3-------3---3---3---3--|3-------3-------3---3---3---3--|
ask of you what you're doin' to
e|------- ----3-- ----3-- ----3--|------- ----3-- ----3-- -------|
B|------------3-------3-------3--|------------3-------3----------|
G|------------4-------4-------4--|------------4-------4----------|
D|-------------------------------|-------------------------------|
A|-------------------------------|-------------------------------|
E|-------------------------------|-------------------------------|



D G
e|2------ 2------ 2---2-- 2------|3------ 3------ 3---3-- 3------|
B|3-------3-------3---3---3------|3-------3-------3---3---3------|
G|2-------2-------2---2---2------|0-------0-------0---0---0------|
D|0-------0-------0---0---0------|0-------0-------0---0---0------|
A|-------------------------------|2-------2-------2---2---2------|
E|-------------------------------|3-------3-------3---3---3------|
me
e|------- ------- ------- -------|------- ------- ------- -------|
B|-------------------------------|-------------------------------|
G|----------------4---2----------|-------------------------------|
D|0----------4------------4---2--|--------2---0---2---4----------|
A|-------------------------------|-------------------------------|
E|-------------------------------|-------------------------------|




Solo

D G7
e|5------ ------- ------- ----5--|-9---9\ 7------ ------- -------|
B|7---------------------------7--|10--10\-8----------------------|
G|-------------------------------|-------------------------------|
D|-------------------------------|-------------------------------|
A|-------------------------------|-------------------------------|
E|-------------------------------|-------------------------------|


D G7
e|5------ ------- ------- ----5--|-9---9\ 7---7-- ------- -------|
B|7---------------------------7--|10--10\-8---8------------------|
G|-------------------------------|-------------------------------|
D|-------------------------------|-------------------------------|
A|-------------------------------|-------------------------------|
E|-------------------------------|-------------------------------|


Bm G7
e|------- ------- ------- -------|----7-- ------- ------- 7------|
B|7------------------------------|------------8------------------|
G|----7-------------------7------|7------------------------------|
D|------------9------------------|-------------------------------|
A|-------------------------------|-------------------------------|
E|-------------------------------|-------------------------------|


D
e|7------ ------- ------- -------|5------ ------- ------- -------|
B|----8--------------------------|7------------------------------|
G|------------7---------------7--|-------------------------------|
D|-------------------------------|-------------------------------|
A|-------------------------------|-------------------------------|
E|-------------------------------|-------------------------------|

e|------- ------- ------- -------|------- ------- ------- -------|
B|-------------------------------|-------------------------------|
G|-------------------------------|----------------4---2----------|
D|-------------------------------|0-----------4-----------4------|
A|-------------------------------|-------------------------------|
E|-------------------------------|-------------------------------|




G Bm
e|3------ 3------ 3---3-- 3---3--|2------ 2------ 2---2-- 2------|
B|3-------3-------3---3---3---3--|3-------3-------3---3---3------|
G|0-------0-------0---0---0---0--|4-------4-------4---4---4------|
D|0-------0-------0---0---0---0--|4-------4-------4---4---4------|
A|2-------2-------2---2---2---2--|2-------2-------2---2---2------|
E|3-------3-------3---3---3---3--|-------------------------------|
I've been waiting here for you
e|------- ----3-- ----3-- ----3--|------- ----2-- ----2-- ----2--|
B|------------3-------3-------3--|------------3-------3-------3--|
G|------------4-------4-------4--|------------4-------4-------4--|
D|2------------------------------|-------------------------------|
A|-------------------------------|-------------------------------|
E|-------------------------------|-------------------------------|


G Bm
e|3------ 3------ 3---3-- 3---3--|2------ 2------ 2---2-- 2---0--|
B|3-------3-------3---3---3---3--|3-------3-------3---3---3---0--|
G|0-------0-------0---0---0---0--|4-------4-------4---4---4---0--|
D|0-------0-------0---0---0---0--|4-------4-------4---4---4------|
A|2-------2-------2---2---2---2--|2-------2-------2---2---2------|
E|3-------3-------3---3---3---3--|-------------------------------|
wondering what you're gonna do
e|------- ----3-- ----3-- ----3--|------- ----2-- ----2-- ----0--|
B|------------3-------3-------3--|------------3-------3-------0--|
G|------------4-------4-------4--|------------4-------4-------0--|
D|-------------------------------|-------------------------------|
A|-------------------------------|-------------------------------|
E|-------------------------------|-------------------------------|


Em
e|0------ 0------ 0---0-- 0---0--|0------ 0---0-- 0---0-- 0------|
B|0-------0-------0---0---0---0--|0-------0---0---0---0---0------|
G|0-------0-------0---0---0---0--|0-------0---0---0---0---0------|
D|2-------2-------2---2---2---2--|2-------2---2---2---2---2------|
A|2-------2-------2---2---2---2--|2-------2---2---2---2---2------|
E|0-------0-------0---0---0---0--|0-------0---0---0---0---0------|
should you need a love that's true it's
e|------- ----0-- ----0-- ----0--|------- ----0-- ----0-- ----0--|
B|------------0-------0-------0--|------------0-------0-------0--|
G|------------0-------0-------0--|------------0-------0-------0--|
D|-------------------------------|-------------------------------|
A|-------------------------------|-------------------------------|
E|-------------------------------|-------------------------------|


A
e|0------ ------- ------- -------|------- ------- ------- -------|
B|2------------------------------|-------------------------------|
G|2------------------------------|-------------------------------|
D|2------------------------------|-------------------------------|
A|0------------------------------|-------------------------------|
E|-------------------------------|-------------------------------|
me
e|0------ ------- ------- -------|------- ------- ------- -------|
B|2------------------------------|-------------------------------|
G|2------------------------------|-------------------------------|
D|-------------------------------|-------------------------------|
A|-------------------------------|-------------------------------|
E|-------------------------------|-------------------------------|

D G
e|2------ 2------ 2---2-- 2---3--|3------ 3------ 3---3-- 3---3--|
B|3-------3-------3---3---3---3--|3-------3-------3---3---3---3--|
G|2-------2-------2---2---2---0--|0-------0-------0---0---0---0--|
D|0-------0-------0---0---0---0--|0-------0-------0---0---0---0--|
A|----------------------------2--|2-------2-------2---2---2---2--|
E|----------------------------3--|3-------3-------3---3---3---3--|
Please stop your lying
e|------- ------- ------- -------|------- ------- ------- -------|
B|-------------------------------|-------------------------------|
G|----------------4---2----------|-------------------------------|
D|0----------4------------4---2--|--------2---0---2---4-------0--|
A|-------------------------------|-------------------------------|
E|-------------------------------|-------------------------------|



D G
e|2------ 2------ 2---2-- 2---3--|3------ 3------ 3---3-- 3------|
B|3-------3-------3---3---3---3--|3-------3-------3---3---3------|
G|2-------2-------2---2---2---0--|0-------0-------0---0---0------|
D|0-------0-------0---0---0---0--|0-------0-------0---0---0------|
A|----------------------------2--|2-------2-------2---2---2------|
E|----------------------------3--|3-------3-------3---3---3------|
you've got me crying, girl why should it
e|------- ------- ------- -------|------- ------- ------- -------|
B|-------------------------------|-------------------------------|
G|----------------4---2----------|-------------------------------|
D|-----------4------------4---2--|--------2---0---2---4----------|
A|-------------------------------|-------------------------------|
E|-------------------------------|-------------------------------|


Bm G
e|2------ 2------ 2---2-- 2------|3------ 3------ 3---3-- 3---3--|
B|3-------3-------3---3---3---3--|3-------3-------3---3---3---3--|
G|4-------4-------4---4---4---4--|0-------0-------0---0---0---0--|
D|4-------4-------4---4---4---4--|0-------0-------0---0---0---0--|
A|2-------2-------2---2---2---2--|2-------2-------2---2---2---2--|
E|-------------------------------|3-------3-------3---3---3---3--|
be so much to ask of you what you're
e|------- ----2-- ----2-- ----2--|------- ----3-- ----3-- ----3--|
B|------------3-------3-------3--|------------3-------3-------3--|
G|------------4-------4-------4--|------------4-------4-------4--|
D|-------------------------------|-------------------------------|
A|-------------------------------|-------------------------------|
E|-------------------------------|-------------------------------|

D
e|3------ 3------ 3---3-- 3------|2------ 2---2-- 2---2-- 2------|
B|3-------3-------3---3---3------|3-------3---3---3---3---3------|
G|0-------0-------0---0---0------|2-------2---2---2---2---2------|
D|0-------0-------0---0---0------|0-------0---0---0---0---0------|
A|2-------2-------2---2---2------|-------------------------------|
E|3-------3-------3---3---3------|-------------------------------|
doin' to me what you're
e|------- ----3-- ----3-- -------|------- ------- ------- -------|
B|------------3-------3----------|-------------------------------|
G|------------4-------4----------|----------------4---2----------|
D|-------------------------------|0-----------4-----------4------|
A|-------------------------------|-------------------------------|
E|-------------------------------|-------------------------------|

G D
e|3------ 3------ 3---3-- 3------|2------ 2---2-- 2---2-- 2------|
B|3-------3-------3---3---3------|3-------3---3---3---3---3------|
G|0-------0-------0---0---0------|2-------2---2---2---2---2------|
D|0-------0-------0---0---0------|0-------0---0---0---0---0------|
A|2-------2-------2---2---2------|-------------------------------|
E|3-------3-------3---3---3------|-------------------------------|
doin' to me what you're
e|------- ------- ------- -------|------- ------- ------- -------|
B|-------------------------------|-------------------------------|
G|-------------------------------|----------------4---2----------|
D|-------------------------------|0-----------4-----------4------|
A|-------------------------------|-------------------------------|
E|-------------------------------|-------------------------------|


G D
e|3------ 3------ 3---3-- 3------|2------ 2------ 2---2-- 2------|
B|3-------3-------3---3---3------|3-------3-------3---3---3------|
G|0-------0-------0---0---0------|2-------2-------2---2---2------|
D|0-------0-------0---0---0------|0-------0-------0---0---0------|
A|2-------2-------2---2---2------|-------------------------------|
E|3-------3-------3---3---3------|-------------------------------|
doin' to me
e|------- ------- ------- -------|------- ------- ------- -------|
B|-------------------------------|-------------------------------|
G|-------------------------------|----------------4---2----------|
D|-------------------------------|0-----------4-----------4---2--|
A|-------------------------------|-------------------------------|
E|-------------------------------|-------------------------------|


X x X X x x x
G D
e|3------ 3------ 3---3-- 3------|2------ ------- ------- -------|
B|3-------3-------3---3---3------|3------------------------------|
G|0-------0-------0---0---0------|2------------------------------|
D|0-------0-------0---0---0------|0------------------------------|
A|2-------2-------2---2---2------|-------------------------------|
E|3-------3-------3---3---3------|-------------------------------|

e|------- ------- ------- -------|------- ------- ------- -------|
B|-------------------------------|-------------------------------|
G|-------------------------------|-------------------------------|
D|--------2---0---2---4----------|0------------------------------|
A|-------------------------------|-------------------------------|
E|-------------------------------|-------------------------------|



X x X X x x x X x X X x x x
e|------- ------- ------- -------|------- ------- ------- -------|
B|-------------------------------|-------------------------------|
G|-------------------------------|-------------------------------|
D|-------------------------------|-------------------------------|
A|-------------------------------|-------------------------------|
E|-------------------------------|-------------------------------|


X x X X x x x D
e|------- ------- ------- -------|2------ 2------ 2---2-- 2------|
B|-------------------------------|3-------3-------3---3---3------|
G|-------------------------------|2-------2-------2---2---2------|
D|-------------------------------|0-------0-------0---0---0------|
A|-------------------------------|-------------------------------|
E|-------------------------------|-------------------------------|

e|------- ------- ------- -------|------- ------- ------- -------|
B|-------------------------------|-------------------------------|
G|-------------------------------|----------------4---2----------|
D|-------------------------------|0-----------4-----------4---2--|
A|-------------------------------|-------------------------------|
E|-------------------------------|-------------------------------|


G D
e|3------ 3------ 3---3-- 3------|2------ 2------ 2---2-- 2------|
B|3-------3-------3---3---3------|3-------3-------3---3---3------|
G|0-------0-------0---0---0------|2-------2-------2---2---2------|
D|0-------0-------0---0---0------|0-------0-------0---0---0------|
A|2-------2-------2---2---2------|-------------------------------|
E|3-------3-------3---3---3------|-------------------------------|

e|------- ------- ------- -------|------- ------- ------- -------|
B|-------------------------------|-------------------------------|
G|-------------------------------|----------------4---2----------|
D|--------2---0---2---4-------0--|------------4-----------4---2--|
A|-------------------------------|-------------------------------|
E|-------------------------------|-------------------------------|



G D
e|3------ 3------ 3---3-- 3------|2------ 2------ 2---2-- 2------|
B|3-------3-------3---3---3------|3-------3-------3---3---3------|
G|0-------0-------0---0---0------|2-------2-------2---2---2------|
D|0-------0-------0---0---0------|0-------0-------0---0---0------|
A|2-------2-------2---2---2------|-------------------------------|
E|3-------3-------3---3---3------|-------------------------------|
.............................Fade..............................

e|------- ------- ------- -------|------- ------- ------- -------|
B|-------------------------------|-------------------------------|
G|-------------------------------|----------------4---2----------|
D|--------2---0---2---4-------0--|------------4-----------4---2--|
A|-------------------------------|-------------------------------|
E|-------------------------------|-------------------------------|








B Bend
R Release
/ slide up
\ slide down
H hammer-on
P pull-off
~ vibrato
+ harmonic
x Mute note
. - play note like a dot in standard notation
^ - ties two notes together
(. Pause

pjvill

Submitted by pjvill at Thu 15 Dec, 2005 10:11 am

Author: ?
Composer: ?
Publisher: ?
Language: English

Reactions

CommonCrawl [Bot]

Follow Muzikum