The Beatles

The Beatles
Wait Ver 2 (Guitar tab)

---------------------------------------------------------------
THE BEATLES - WAIT (Lennon McCartney) From RUBBER SOUL album.
Released on 3rd December 1965.

---------------------------------------------------------------

Tabbed by:PJVillanueva






It's been a long time
Now I'm coming back home
I've been away now
Oh how I've been alone
Wait till I come back to your side
We'll forget the tears we've cried

But if your heart breaks
Don't wait, turn me away
And if your heart's strong
Hold on, I won't delay
Wait till I come back to your side
We'll forget the tears we've cried

I feel as though
You ought to know
That I've been good
As good as I can be
And if you do
I'll trust in you
And know that you
Will wait for me

It's been a long time
Now I'm coming back home
I've been away now
Oh how I've been alone
Wait till I come back to your side
We'll forget the tears we've cried

I feel as though
You ought to know
That I've been good
As good as I can be
And if you do
I'll trust in you
And know that you
Will wait for me

It's been a long time
Now I'm coming back home
I've been away now
Oh how I've been alone
Wait till I come back to your side
We'll forget the tears we've cried

It's been a long time
Now I'm coming back home
I've been away now
Oh, how I've been alone






Use a capo on the 2nd fret for
the 1st guitar.(Not the 2nd.)





It's been a

x x x x x x
e|------- ------- ------- -------|------- ------- ------- -------|
B|3-----------2------------------|1-----------0------------------|
G|4-----------2------------------|2-----------0------------------|
D|-------------------------------|-------------------------------|
A|-------------------------------|-------------------------------|
E|-------------------------------|-------------------------------|
long time Now I'm



x x
x x x X X X X X X X X
e|------- ------- ------- -------|------- ------- ------- -------|
B|0------------------------------|3----------2-------------------|
G|2-----------0------------------|4----------2-------------------|
D|1-----------2------------------|-------------------------------|
A|-------------------------------|-------------------------------|
E|-------------------------------|-------------------------------|
coming back home I've been away now




x x x x XXXXXX
X X X X X X X X X X X X X X X
e|------- ------- ------- -------|------- ------- ------- -------|
B|1-----------0------------------|0------------------------------|
G|2-----------0------------------|2-----------0------------------|
D|-------------------------------|1-----------2------------------|
A|-------------------------------|-------------------------------|
E|-------------------------------|-------------------------------|
Oh how I've been alone


Chorus

G6
e|------- 3------ ----3-- 3---3--|--------3------ ----3-- 3---3--| 1
B|--------5-----------5---5---5--|--------5-----------5---5---5--|
G|--------4-----------4---4---4--|--------4-----------4---4---4--|
D|5-------3-----------3---3---3--|--------3-----------3---3---3--|
A|5-------5-----------5---5---5--|--------5-----------5---5---5--|
E|3-------3-----------3---3---3--|--------3-----------3---3---3--|
Wait till I come back to your side
A6
e|------- ----5-- ------- -------|------- ----5-- ------- -------| 2
B|------------7------------------|------------7------------------|
G|------------6------------------|------------6------------------|
D|------------7------------------|------------7------------------|
A|-------------------------------|-------------------------------|
E|-------------------------------|-------------------------------|





G6 B7
e|3------ 3------ ----3-- 3---3--|------- 3------ ------- -------|
B|5-------5-----------5---5---5--|--------5-----------0---0---0--|
G|4-------4-----------4---4---4--|--------4-----------2---2---2--|
D|3-------3-----------3---3---3--|--------3-----------1---1---1--|
A|5-------5-----------5---5---5--|--------5-----------2---2---2--|
E|3-------3-----------3---3---3--|--------3----------------------|
We'll forget the tears we cried
e|------- ----5-- ------- -------|------- ------- ------- -------|
B|------------7------------------|-------------------------------|
G|------------6------------------|-------------------------------|
D|------------7------------------|-------------------------------|
A|-------------------------------|-------------------------------|
E|-------------------------------|-------------------------------|






F#m
e|------- ------- ------- -------| 2
B|-------------------------------|
G|-------------------------------|
D|----4---4---4---4--------------|
A|----4---4---4---4--------------|
E|----2---2---2---2--------------|
But if your



Verse

x x x x x x
e|------- ------- ------- -------|------- ------- ------- -------|
B|3-----------2------------------|1-----------0------------------|
G|4-----------2------------------|2-----------0------------------|
D|-------------------------------|-------------------------------|
A|-------------------------------|-------------------------------|
E|-------------------------------|-------------------------------|
heart's breaks don't wait




x x
x x x X X X X X X X X
e|------- ------- ------- -------|------- ------- ------- -------|
B|0------------------------------|3----------2-------------------|
G|2-----------0------------------|4----------2-------------------|
D|1-----------2------------------|-------------------------------|
A|-------------------------------|-------------------------------|
E|-------------------------------|-------------------------------|
turn me away And if your heart's strong




x x x x XXXXXX
X X X X X X X X X X X X X X X
e|------- ------- ------- -------|------- ------- ------- -------|
B|1-----------0------------------|0------------------------------|
G|2-----------0------------------|2-----------0------------------|
D|-------------------------------|1-----------2------------------|
A|-------------------------------|-------------------------------|
E|-------------------------------|-------------------------------|
hold on I won't delay


Chorus

G6
e|------- 3------ ----3-- 3---3--|--------3------ ----3-- 3---3--| 1
B|--------5-----------5---5---5--|--------5-----------5---5---5--|
G|--------4-----------4---4---4--|--------4-----------4---4---4--|
D|--------3-----------3---3---3--|--------3-----------3---3---3--|
A|--------5-----------5---5---5--|--------5-----------5---5---5--|
E|--------3-----------3---3---3--|--------3-----------3---3---3--|
Wait till I come back to your side
A6
e|------- ----5-- ------- -------|------- ----5-- ------- -------| 2
B|------------7------------------|------------7------------------|
G|------------6------------------|------------6------------------|
D|------------7------------------|------------7------------------|
A|-------------------------------|-------------------------------|
E|-------------------------------|-------------------------------|





B7
e|------- 3------ ----3-- 3---3--|------- 3------ ------- -------|
B|--------5-----------5---5---5--|--------5-----------0---0---0--|
G|--------4-----------4---4---4--|--------4-----------2---2---2--|
D|--------3-----------3---3---3--|--------3-----------1---1---1--|
A|--------5-----------5---5---5--|--------5-----------2---2---2--|
E|--------3-----------3---3---3--|--------3----------------------|
We'll forget the tears we cried

e|------- ----5-- ------- -------|------- -----4- ------- -------|
B|------------7------------------|-------------6-----------------|
G|------------6------------------|-------------4-----------------|
D|------------7------------------|-------------6-----------------|
A|-------------------------------|-------------------------------|
E|-------------------------------|-------------------------------|





Em
e|------- 0------ ------- -------|
B|--------0----------------------|
G|--------0----------------------|
D|--------2----------------------|
A|--------2----------------------|
E|--------0----------------------|
I feel as
F#m ~ ~
e|------- 2------ ------- -------|
B|--------2----------------------|
G|--------2----------------------|
D|--------4----------------------|
A|-------------------------------|
E|-------------------------------|



Middle eight

A5
e|------- ------- ------- -------|------- ------- ------- -------|
B|-------------------------------|-------------------------------|
G|2------------------------------|7-------7---7---7-------7---7--|
D|2------------------------------|7-------7---7---7-------7---7--|
A|0------------------------------|5-------5---5---5-------5---5--|
E|-------------------------------|-------------------------------|
though you ought to know that I've been
B5 E5
e|------- ------- ------- -------|------- ------- ------- -------|
B|-------------------------------|-------------------------------|
G|----4---4---4---4---4---4---4--|-------------------------------|
D|----4---4---4---4---4---4---4--|--------2---2---2---2---2---2--|
A|----2---2---2---2---2---2---2--|--------2---2---2---2---2---2--|
E|-------------------------------|--------0---0---0---0---0---0--|





e|------- ------- ------- -------|------- ------- ------- -------|
B|-------------------------------|-------------------------------|
G|--0----------------------------|-------------------------------|
D|-------------------------------|-------------------------------|
A|-------------------------------|--2----------------------------|
E|-------------------------------|-------------------------------|
good as good as I can be And if you
A5 F#5
e|------- ------- ------- -------|------- ------- ------- -------|
B|-------------------------------|-------------------------------|
G|----------------2---2---2------|-------------------------------|
D|----------------2---2---2------|--------4---4---4---4---4---4--|
A|----------------0---0---0------|--------4---4---4---4---4---4--|
E|-------------------------------|--------2---2---2---2---2---2--|





e|------- ------- ------- -------|------- ------- ------- -------|
B|-------------------------------|-------------------------------|
G|-------------------------------|-------------------------------|
D|-------------------------------|0-----------0-----------0------|
A|0------------------------------|-------------------------------|
E|-------------------------------|-------------------------------|
do I'll trust in you And know that
B5 E5
e|------- ------- ------- -------|------- ------- ------- -------|
B|-------------------------------|-------------------------------|
G|4---4---4---4---4---4----------|-------------------------------|
D|4---4---4---4---4---4---2-/-4--|--------2---2---2---2---2---0--|
A|2---2---2---2---2---2----------|--------2---2---2---2----------|
E|-------------------------------|--------0---0---0---0----------|





e|------- ------- ------- 3---3--|------- ------- ------- -------|
B|------------------------3---3--|0-------0----------------------|
G|0------------------------------|-------------------------------|
D|-------------------------------|-------------------------------|
A|-------------------------------|-------------------------------|
E|-------------------------------|-------------------------------|
you will wait for me It's been a
A5 C#sus4 DC#
e|------- ------- ------- -------|4-------4------ ------- -------|
B|-------------------------------|7-------6----------------------|
G|--------2---2---2--------------|6-------6----------------------|
D|--------2---2---2--------------|-------------------------------|
A|--------0---0---0--------------|-------------------------------|
E|-------------------------------|-------------------------------|



Verse

x x x x x x
e|------- ------- ------- -------|------- ------- ------- -------|
B|3-----------2------------------|1-----------0------------------|
G|4-----------2------------------|2-----------0------------------|
D|-------------------------------|-------------------------------|
A|-------------------------------|-------------------------------|
E|-------------------------------|-------------------------------|
long time Now I'm



x x
x x x X X X X X X X X
e|------- ------- ------- -------|------- ------- ------- -------|
B|0------------------------------|3----------2-------------------|
G|2-----------0------------------|4----------2-------------------|
D|1-----------2------------------|-------------------------------|
A|-------------------------------|-------------------------------|
E|-------------------------------|-------------------------------|
coming back home I've been away now




x x x XXXXXX
X X X X X X X X X X X X X X X
e|------- ------- ------- -------|------- ------- ------- -------|
B|1-----------0------------------|0------------------------------|
G|2-----------0------------------|2-----------0------------------|
D|-------------------------------|1-----------2------------------|
A|-------------------------------|-------------------------------|
E|-------------------------------|-------------------------------|
Oh how I've been alone



Chorus

G6
e|------- 3------ ----3-- ----3--|------- 3------ ----3-- 3---3--|
B|--------5-----------5-------5--|--------5-----------5---5---5--|
G|--------4-----------4-------4--|--------4-----------4---4---4--|
D|--------3-----------3-------3--|--------3-----------3---3---3--|
A|--------5-----------5-------5--|--------5-----------5---5---5--|
E|--------3-----------3-------3--|--------3-----------3---3---3--|
Wait till I come back to your side
A6
e|------- ----5-- ------- -------|------- ----5-- ------- -------|
B|------------7------------------|------------7------------------|
G|------------6------------------|------------6------------------|
D|------------7------------------|------------7------------------|
A|-------------------------------|-------------------------------|
E|-------------------------------|-------------------------------|





B7 Em
e|------- 3------ ----3-- 3---3--|------- 3------ ----2-- ----0--|
B|--------5-----------5---5---5--|--------5-----------4-------0--|
G|--------4-----------4---4---4--|--------4-----------2-------0--|
D|--------3-----------3---3---3--|--------3-----------4-------2--|
A|--------5-----------5---5---5--|--------5-----------2-------2--|
E|--------3-----------3---3---3--|--------3-------------------0--|
We'll forget the tears we cried
e|------- ----5-- ------- -------|------- --5---- ------- -------|
B|------------7------------------|----------7--------------------|
G|------------6------------------|----------6--------------------|
D|------------7------------------|----------7--------------------|
A|-------------------------------|-------------------------------|
E|-------------------------------|-------------------------------|






e|------- ------- ------- -------|
B|-------------------------------|
G|-------------------------------|
D|-------------------------------|
A|-------------------------------|
E|-------------------------------|
I feel as
F#m ~ ~
e|------- 2------ ------- -------|
B|--------2----------------------|
G|--------2----------------------|
D|--------4----------------------|
A|-------------------------------|
E|-------------------------------|



Middle eight

A5 D5
e|------- ------- ------- -------|------- ------- ------- -------|
B|-------------------------------|-------------------------------|
G|----2---2---2---2---2---2---2--|7---7---7---7---7---7---7------|
D|----2---2---2---2---2---2---2--|7---7---7---7---7---7---7------|
A|0---0---0---0---0---0---0---0--|5---5---5---5---5---5---5------|
E|-------------------------------|-------------------------------|
though you ought to know that I've been
B5 E5
e|------- ------- ------- -------|------- ------- ------- -------|
B|-------------------------------|-------------------------------|
G|----4---4---4---4---4---4------|-------------------------------|
D|----4---4---4---4---4---4------|--------2---2---2---2---2P0----|
A|----2---2---2---2---2---2------|--------2---2---2---2----------|
E|-------------------------------|--------0---0---0---0----------|





e|------- ------- ------- -------|------- ------- ------- -------|
B|-------------------------------|-------------------------------|
G|--0----------------------------|0------------------------------|
D|-------------------------------|2------------------------------|
A|-------------------------------|2------------------------------|
E|-------------------------------|0------------------------------|
good as good as I can be And if you
A F#5
e|------- ------- ------- -------|------- ------- ------- -------|
B|-------------------------------|-------------------------------|
G|--------2---2---2---2---2------|-------------------------------|
D|--------2---2---2---2---2------|--------4---4---4---4-------4--|
A|--------0---0---0---0---0------|--------4---4---4---4-------4--|
E|-------------------------------|--------2---2---2---2-------2--|





A D
e|----0-- 0---0-- 0---0-- 0---0--|2---2-- 2---2-- 2---2-- 2------|
B|----2---2---2---2---2---2---2--|3---3---3---3---3---3---3------|
G|----2---2---2---2---2---2---2--|2---2---2---2---2---2---2------|
D|----2---2---2---2---2---2---2--|0---0---0---0---0---0---0------|
A|0---0---0---0---0---0---0---0--|-------------------------------|
E|-------------------------------|-------------------------------|
do I'll trust in you And know that
B5 E5
e|------- ------- ------- -------|------- ------- ------- -------|
B|-------------------------------|-------------------------------|
G|4-------4---4---4---4----------|-------------------------------|
D|4-------4---4---4---4---2-/-4--|--------2---2---2---2---2---2--|
A|2-------2---2---2---2----------|--------2---2---2---2----------|
E|-------------------------------|--------0---0---0---0----------|





G Bsus4 B
e|3---3-- 3---3-- 3---3-- 3---3--|2------ 2------ ------- -------|
B|3---3---3---3---3---3---3---3--|5-------4----------------------|
G|0---0---0---0---0---0---0---0--|4-------4----------------------|
D|0---0---0---0---0---0---0---0--|4-------4----------------------|
A|-------------------------------|-------------------------------|
E|-------------------------------|-------------------------------|
you will wait for me But if your
A5 C#sus4 DC#
e|------- ------- ------- -------|4-------4------ ------- -------|
B|-------------------------------|7-------6----------------------|
G|2-----------2------------------|6-------6----------------------|
D|2-----------2------------------|-------------------------------|
A|0-----------0------------------|-------------------------------|
E|-------------------------------|-------------------------------|



Verse

x x x x x x
e|------- ------- ------- -------|------- ------- ------- -------|
B|3-----------2------------------|1-----------0------------------|
G|4-----------2------------------|2-----------0------------------|
D|-------------------------------|-------------------------------|
A|-------------------------------|-------------------------------|
E|-------------------------------|-------------------------------|
heart's breaks don't wait




x x
x x x X X X X X X X X
e|------- ------- ------- -------|------- ------- ------- -------|
B|0------------------------------|3----------2-------------------|
G|2-----------0------------------|4----------2-------------------|
D|1-----------2------------------|-------------------------------|
A|-------------------------------|-------------------------------|
E|-------------------------------|-------------------------------|
turn me away And if your heart's strong





x x x x XXXXXX
X X X X X X X X X X X X X X X
e|------- ------- ------- -------|------- ------- ------- -------|
B|1-----------0------------------|0------------------------------|
G|2-----------0------------------|2-----------0------------------|
D|-------------------------------|1-----------2------------------|
A|-------------------------------|-------------------------------|
E|-------------------------------|-------------------------------|
hold on I won't delay


Chorus

G6
e|------- 3------ ----3-- 3---3--|--------3------ ----3-- 3---3--| 1
B|--------5-----------5---5---5--|--------5-----------5---5---5--|
G|--------4-----------4---4---4--|--------4-----------4---4---4--|
D|--------3-----------3---3---3--|--------3-----------3---3---3--|
A|--------5-----------5---5---5--|--------5-----------5---5---5--|
E|--------3-----------3---3---3--|--------3-----------3---3---3--|
Wait till I come back to your side
A6
e|------- ----5-- ------- -------|------- ----5-- ------- -------| 2
B|------------7------------------|------------7------------------|
G|------------6------------------|------------6------------------|
D|------------7------------------|------------7------------------|
A|-------------------------------|-------------------------------|
E|-------------------------------|-------------------------------|





B7
e|------- 3------ ----3-- 3---3--|------- 3------ ----2-- -------|
B|--------5-----------5---5---5--|--------5-----------4----------|
G|--------4-----------4---4---4--|--------4-----------2----------|
D|--------3-----------3---3---3--|--------3-----------4----------|
A|--------5-----------5---5---5--|--------5-----------2----------|
E|--------3-----------3---3---3--|--------3----------------------|
We'll forget the tears we cried

e|------- ----5-- ------- -------|------- ------- ------- -------|
B|------------7------------------|-------------------------------|
G|------------6------------------|-------------------------------|
D|------------7------------------|-------------------------------|
A|-------------------------------|-------------------------------|
E|-------------------------------|-------------------------------|





Em
e|0------ ------- ------- -------|
B|0------------------------------|
G|0------------------------------|
D|2------------------------------|
A|2------------------------------|
E|0------------------------------|
It's been a
F#m
e|------- ------- ------- -------|
B|-------------------------------|
G|-------------------------------|
D|--------4---4---4--------------|
A|--------4---4---4--------------|
E|--------2---2---2--------------|



Coda

x x x x x x
e|------- ------- ------- -------|------- ------- ------- -------|
B|3-----------2------------------|1-----------0------------------|
G|4-----------2------------------|2-----------0------------------|
D|-------------------------------|-------------------------------|
A|-------------------------------|-------------------------------|
E|-------------------------------|-------------------------------|
long time Now I'm




x x x x x x
e|------- ------- ------- -------|------- ------- ------- -------|
B|0------------------------------|-------------------------------|
G|2-----------0------------------|-------------------------------|
D|1-----------2------------------|-------------------------------|
A|-------------------------------|-------------------------------|
E|-------------------------------|-------------------------------|
coming back home I've been away now





x x x
e|------- ------- ------- -------|------- ------- -------|
B|-------------------------------|-----------------------|
G|-------------------------------|-----------------------|
D|-------------------------------|-----------------------|
A|-------------------------------|-----------------------|
E|-------------------------------|-----------------------|
Oh how I've been a......




xxxxxxxxxxxxxxxxxxxxxxxxx
(.
e|------- ------- -------|------- ------- -------|
B|-----------------------|-----------------------|
G|-----------------------|-----------------------|
D|-----------------------|-----------------------|
A|--------2--------------|-----------------------|
E|----------------3------|0----------------------|
lone








B Bend
R Release
/ Slide up
\ Slide down
H Hammer-on
P Pull-off
~ Vibrato
+ Harmonic
x Mute note
. Play note like a dot in standard notation
^ Ties two notes together
(. Pause

pjvill

Submitted by pjvill at Thu 15 Dec, 2005 10:09 am

Author: ?
Composer: ?
Publisher: ?
Language: English

Reactions

CommonCrawl [Bot]

Follow Muzikum