The Beatles

The Beatles
Till There Was You Ver 2 (Guitar tab)

-----------------------------------------------------------------
The Beatles - Till there was you from With The Beatles album
( This is a cover version from Meredith Wilson's
number included in 1957's Broadway Show The Music
Man.)

-----------------------------------------------------------------

Tabbed by:PJVillanueva






Intro

F F#dim Gm C7/9
F F#dim Gm C7/9



F F#dim
There were bells on a hill

Gm Bbm
But I never heard them ringing

F Am G#m Gm C7/9
No I never heard them at all

F Gm C7/9
Till there was you



F F#dim
There were birds in the sky

Gm Bbm
But I never saw them winging

F Am G#m Gm C7/9
No I never saw them at all

F F7/9
Till there was you




Bb Bbm F
Then there was music and wonderful roses

D7/9 Gm D#5 G7 C7/9 C#5
They tell me in sweet fragrant meadows of dawn and dew

F F#dim
There was love all around

Gm Bbm
But I never heard it singing

F Am G#m Gm C7/9
No I never heard it at all

F Gm C7/9
Till there was you




Solo: F F#dim Gm Bbm F Am G#m Gm C7/9 F F7/9




Then there was

Bb Bbm F
music and wonderful roses

D7/9 Gm D#5 G7 C C9 C7/#5
They tell me in sweet fragrant meadows of dawn and you




F F#dim
There was love all around

Gm Bbm
But I never heard it singing

F Am G#m Gm C7/9
No I never heard it at all

F
Till there was you

C E C F C# F Fmaj7/9
Till..........there was you.............






Intro


e|1------ ------- ------- -------|------- ------- ------- -------|
B|---1---------------------------|3------------------------------|
G|-----------2-------------------|---3------------5--------------|
D|----------------4--------------|-----------5-------------------|
A|-------------------------------|-------------------------------|
E|-------------------------------|-------------------------------|
............................2 times............................




Solo


e|------- ------- ------- -------|---1--- ------- ------- -------|
B|-------------------------------|1-------3---1------------------|
G|------------------------2---3--|----------------3---2---0------|
D|-------------------------------|----------------------------3--|
A|-------------------------------|-------------------------------|
E|-------------------------------|-------------------------------|



e|------- ------- ------- -------|------3 3---3-- 3---3-- 3---3--|
B|--------1---4---3---1----------|------3-3---3---3---3---3---3--|
G|---2--------------------3---2--|3-----3-5---3---5---3---5---3--|
D|4------------------------------|-------------------------------|
A|-------------------------------|-------------------------------|
E|-------------------------------|-------------------------------|



e|------6 8---6-- 8---6-- 8---6--|------- ------- ----8-- ----7--|
B|------6-6---6---6---6---6---6--|--------10---------10-------9--|
G|6-----6-6---6---6---6---6---6--|------10------------9-------8--|
D|-------------------------------|----10----------10------9------|
A|-------------------------------|-8----------8------------------|
E|-------------------------------|-------------------------------|



e|6------ ------- 5------ -------|------- ------- ------- -------|
B|8---------------2--------------|6---6--------------------------|
G|7---------------3--------------5----------7--------------------|
D|8---------------2-------------7-----------------5--------------|
A|----------------3------------8-|-------------------------------|
E|-------------------------------|----------------------------5--|



e|------- ------- ------- -------|
B|------------------------6------|
G|--------------------5----------|
D|-----------4----7--------------|
A|3-----6------------------------|
E|-------------------------------|








Ending - First guitar

1 2
e|------- ------- ------- -------|------- ------- ------- -------|
B|1-----1---1-----0----0----0----|1-----1----1-------0----0------|
G|0----0----0-----1---1-----1----|0----0-----0-------1----1------|
D|2---2-----2-----2--2------2----|2---2------2-------2----2------|
A|3--3------3-----2-2-------2----|3--3-------3-------3----3------|
E|-------------------------------|-------------------------------|


3 4
e|1------ ---1--- 1------ 1------|4------ ---4--- ------- 4------|
B|1----------1----1-------1------|6----------6------------6------|
G|2----------2----2-------2------|6----------6------------6------|
D|3----------3----3-------3------|6----------6------------6------|
A|3----------3----3-------3------|4----------4------------4------|
E|1------------------------------|-------------------------------|


5 6
e|1------ ---1--- ------- 1------|1------ ------- 1------ -------|
B|1----------1------------1------|1---------------1--------------|
G|2----------2------------2------|2---------------2--------------|
D|3----------3------------3------|3---------------3--------------|
A|3----------3------------3------|3---------------3--------------|
E|1----------1------------1------|1---------------1--------------|





Ending - Second guitar

3 4
e|------- ------- 10----8----10--|-9----- 11----9 ---11-- -9-----|
B|----------------10---10----10--|-9-------9----9-----9----9-----|
G|----------------10---10----10--|10------10---10----10---10-----|
D|-------------------------------|-------------------------------|
A|-------------------------------|-------------------------------|
E|-------------------------------|-------------------------------|


5 6
e|------- ------- ------- -------|------- ------- ------- -------|
B|-------------------------------|----------------8--------------|
G|-------------------------------|----------------9--------------|
D|-------------------------------|----------------7--------------|
A|-------------------------------|----------------8--------------|
E|-------------------------------|-------------------------------|









Chords: F 133211
F#dim 2x121x xx1212
Gm 355333
C7/9 x3233x
Bbm 688666
Am 577555
G#m 466444
F7/9 xx3243
Bb 688766
D7/9 x5455x
D#5 x5433x
G7 353433
C 332010
C9 x32013
C#5 x3211x
C7#5 xx6554
Fmaj7/9 x8798x





B Bend
R Release
/ slide up
\ slide down
H hammer-on
P pull-off
~ vibrato
+ harmonic
x Mute note
. - play note like a dot in standard notation
^ - ties two notes together
(. Pause

pjvill

Submitted by pjvill at Thu 15 Dec, 2005 10:07 am

Author: ?
Composer: ?
Publisher: ?
Language: English

Reactions

CommonCrawl [Bot]

Follow Muzikum