The Beatles

The Beatles
Think For Yourself Ver 2 (Guitar tab)

---------------------------------------------------------------------
THE BEATLES - THINK FOR YOURSELF (Harrison) Released on RUBBER SOUL
album on 3rd December 1965.

---------------------------------------------------------------------

Tabbed by:PJVillanueva





Paul recorded two basses for this song. One conventionally and
another with his Epiphone Casino through a fuzz box. John played
the electric piano.
To play the 2nd bass part you can tune E string to G, A string
to C, D string to F and G to Bb an octave down. This way you can
produce the lowest notes heard on the record.







I've got a word or two
To say about the things that you do
You're telling all those lies
About the good things that we can have
If we close our eyes

Do what you want to do
And go where you're going to
Think for yourself
'Cause I won't be there with you

I left you far behind
The ruins of the life that you had in mind
And though you still can't see
I know your mind's made up
You're gonna cause more misery

Do what you want to do
And go where you're going to
Think for yourself
'Cause I won't be there with you

Although your mind's opaque
Try thinking more if just for your own sake
The future still looks good
And you've got time to rectify
All the things that you should

Do what you want to do
And go where you're going to
Think for yourself
'Cause I won't be there with you

Do what you want to do
And go where you're going to
Think for yourself
'Cause I won't be there with you
Think for yourself
'Cause I won't be there with you






x x x
Bb------- ------- ------- -------|------- ------- ------- -------|
F|-------------------------------|-------------------------------|
C|7-------7-------7-------7------|7-------7-------7-----7-----8--|
G|-------------------------------|-------------------------------|
G7
e|------- 3---3-- ------- 3------|------- 3---3-- ------- -------|
B|--------6---6-----------6------|--------6---6------------------|
G|--------4---4-----------4------|--------4---4------------------|
D|--------3---3-----------3------|--------3---3------------------|
A|--------5---5-----------5------|--------5---5------------------|
E|--------3---3-----------3------|--------3---3------------------|

e|------- ------- ------- -------|------- ------- ------- -------|
B|-------------------------------|-------------------------------|
G|4-------4-------4-------4------|4-------4-------4-----4-----4--|
D|5-------5-------5-------5------|5-------5-------5-----5-----5--|
A|5-------5-------5-------5------|5-------5-------5-----5-----5--|
E|3-------3-------3-------3------|3-------3-------3-----3-----3--|




x
Bb------- ------- ------- -------|------- ------- ------- -------|
F|-------------------------------|9-------------9H11----9-----7--|
C|9------------------------------|-------------------------------|
G|-------------------------------|-------------------------------|
I've got a word or two
e|------- 5------ ------- 5------|------- 5------ ------- 5------|
B|--------5---------------5------|--------6---------------6------|
G|--------5---------------5------|--------7---------------7------|
D|--------7---------------7------|--------7---------------7------|
A|--------7---------------7------|--------5---------------5------|
E|--------5---------------5------|-------------------------------|
Am Dm
e|5---5-- 5---5-- 5---5-- 5---5--|5---5-- 5---5-- 5---5-- 5---5--|
B|5---5---5---5---5---5---5---5--|6---6---6---6---6---6---6---6--|
G|5---5---5---5---5---5---5---5--|7---7---7---7---7---7---7---7--|
D|-------------------------------|-------------------------------|
A|-------------------------------|-------------------------------|
E|-------------------------------|-------------------------------|





Bb------- ------- ------- -------|------- ------- ------- -------|
F|5------------------------------|7---------------------------7--|
C|-------------------------------|-------------------------------|
G|-------------------------------|-------------------------------|
To say about the things that you
e|------- 6------ ----6-- ----6--|------- 3------ ----3-- ----3--|
B|--------6-----------6-------6--|--------5-----------5-------5--|
G|--------7-----------7-------7--|--------5-----------5-------5--|
D|--------8-----------8-------8--|--------5-----------5-------5--|
A|--------8-----------8-------8--|--------3-----------3-------3--|
E|--------6-----------6-------6--|-------------------------------|
Bb C
e|6---6-- 6---6-- 6---6-- 6---6--|3---3-- 3---3-- 3---3-- 3---3--|
B|6---6---6---6---6---6---6---6--|5---5---5---5---5---5---5---5--|
G|7---7---7---7---7---7---7---7--|5---5---5---5---5---5---5---5--|
D|-------------------------------|-------------------------------|
A|-------------------------------|-------------------------------|
E|-------------------------------|-------------------------------|





Bb------- ------- ------- -------|------- ------- ------- -------|
F|-------------------------------|-------------------------------|
C|7-------------------7----------|7---------------------7-----8--|
G|------------------------0------|-------------------------------|
do
e|------- 3---3-- ----3-- 3---3--|------- 3------ ----3-- 3---3--|
B|--------6---6-------6---6---6--|--------6-----------6---6---3--|
G|--------4---4-------4---4---4--|--------4-----------4---4---4--|
D|--------3---3-------3---3---3--|--------3-----------3---3---3--|
A|--------5---5-------5---5---5--|--------5-----------5---5---5--|
E|--------3---3-------3---3---3--|--------3-----------3---3---3--|
G7
e|3---3-- 3---3-- 3---3-- 3---3--|3---3-- 3---3-- 3---3-- 3---3--|
B|6---6---6---6---6---6---6---6--|6---6---6---6---6---6---6---6--|
G|4---4---4---4---4---4---4---4--|4---4---4---4---4---4---4---4--|
D|-------------------------------|-------------------------------|
A|-------------------------------|-------------------------------|
E|-------------------------------|-------------------------------|





Bb------- ------- ------- -------|------- ------- ------- -------|
F|-------------------------------|9-------------9H11----9-----7--|
C|9---------------------------9--|-------------------------------|
G|-------------------------------|-------------------------------|
You're telling all those lies
e|------- 5------ ------- 5------|------- 5------ ----5-- 5------|
B|--------5---------------5------|--------6-----------6---6------|
G|--------5---------------5------|--------7-----------7---7---7--|
D|--------7---------------7------|--------7-----------7---7---7--|
A|--------7---------------7------|--------5-----------5---5---5--|
E|--------5---------------5------|-------------------------------|
Am Dm
e|5---5-- 5---5-- 5---5-- 5---5--|5---5-- 5---5-- 5---5-- 5---5--|
B|5---5---5---5---5---5---5---5--|6---6---6---6---6---6---6---6--|
G|5---5---5---5---5---5---5---5--|7---7---7---7---7---7---7---7--|
D|-------------------------------|-------------------------------|
A|-------------------------------|-------------------------------|
E|-------------------------------|-------------------------------|





Bb------- ------- ------- -------|------- ------- ------- -------|
F|5---------------------------5--|7---------------------------7--|
C|-------------------------------|-------------------------------|
G|-------------------------------|-------------------------------|
About the good things that we can
e|------- 6------ ------- 6------|------- 3------ ----3-- 3------|
B|--------6---------------6------|--------5-----------5---5------|
G|--------7---------------7------|--------5-----------5---5------|
D|--------8---------------8------|--------5-----------5---5------|
A|--------8---------------8------|--------3-----------3---3------|
E|--------6---------------6------|-------------------------------|
Bb C
e|6---6-- 6---6-- 6---6-- 6---6--|3---3-- 3---3-- 3---3-- 3---3--|
B|6---6---6---6---6---6---6---6--|5---5---5---5---5---5---5---5--|
G|7---7---7---7---7---7---7---7--|5---5---5---5---5---5---5---5--|
D|-------------------------------|-------------------------------|
A|-------------------------------|-------------------------------|
E|-------------------------------|-------------------------------|




x x x
Bb------- ------- ------- -------|------- ------- ------- -------|
F|-------------------------------|-------------------------------|
C|7---------------------------7--|9---------------------------7--|
G|-------------------------------|-------------------------------|
have if we close our eyes
e|------- 3------ ----3-- -------|------- 5------ ----5-- 5---3--|
B|--------3-----------3----------|--------5-----------5---5---3--|
G|--------4-----------4----------|--------5-----------5---5---4--|
D|--------5-----------5----------|--------7-----------7---7---5--|
A|--------5-----------5----------|--------7-----------7---7---5--|
E|--------3-----------3----------|--------5-----------5---5---3--|
G Am
e|3---3-- 3---3-- 3---3-- 3---3--|5---5-- 5---5-- 5---5-- 5---5--|
B|3---3---3---3---3---3---3---3--|5---5---5---5---5---5---5---5--|
G|4---4---4---4---4---4---4---4--|5---5---5---5---5---5---5---5--|
D|-------------------------------|-------------------------------|
A|-------------------------------|-------------------------------|
E|-------------------------------|-------------------------------|




X x x
Bb------- ------- ------- -------|------- ------- ------- -------|
F|-------------------------------|--------5-------4--------------|
C|--------4-------7---7---4------|--------------------7---4-\-2--|
G|5------------------------------|5---5--------------------------|
Do what you want to do and
e|6---6-- 6---6-- ----6-- 6------|------- 6---6-- 6---6-- 6------|
B|5---5---5---5-------5---5------|--------5---5---5---5---5------|
G|3---3---3---3-------3---3------|--------3---3---3---3---3------|
D|5---5---5---5-------5---5------|--------5---5---5---5---5------|
A|3---3---3---3-------3---3------|--------3---3---3---3---3------|
E|-------------------------------|-------------------------------|
C
e|3---3-- 3---3-- 3---3-- 3---3--|3---3-- 3---3-- 3---3-- 3---3--|
B|5---5---5---5---5---5---5---5--|5---5---5---5---5---5---5---5--|
G|5---5---5---5---5---5---5---5--|5---5---5---5---5---5---5---5--|
D|-------------------------------|-------------------------------|
A|-------------------------------|-------------------------------|
E|-------------------------------|-------------------------------|




x x X x x
Bb------- ------- ------- -------|------- ------- ------- -------|
F|--------5-H-6-----------5H6----|-------------------------------|
C|7---7-----------7---7----------|-----5-------------------------|
G|-------------------------------|7---------7-----5----3-----0---|
go where you're going to
e|------- 3---3-- ----3-- ----3--|------- 3------ ------- 3------|
B|--------6---6-------6-------6--|--------6---------------6------|
G|--------4---4-------4-------4--|--------4---------------4------|
D|--------3---3-------3-------3--|--------3---------------3------|
A|--------5---5-------5-------5--|--------5---------------5------|
E|--------3---3-------3-------3--|--------3---------------3------|
G7
e|3---3-- 3---3-- 3---3-- 3---3--|3---3-- 3---3-- 3---3-- 3---3--|
B|6---6---6---6---6---6---6---6--|6---6---6---6---6---6---6---6--|
G|4---4---4---4---4---4---4---4--|4---4---4---4---4---4---4---4--|
D|-------------------------------|-------------------------------|
A|-------------------------------|-------------------------------|
E|-------------------------------|-------------------------------|





Bb------- ------- ------- -------|------- ------- ------- -------|
F|-------------------------------|-------------------------------|
C|-------------------------------|----------------------------5--|
G|3---------------------------5--|7-------------------7----------|
Think for yourself 'cause I won't be there with you
e|------- 6------ ------- 6------|------- 5------ ------- 5------|
B|--------8---------------8------|--------7---------------7------|
G|--------8---------------8------|--------7---------------7------|
D|--------8---------------8------|--------7---------------7------|
A|--------6---------------6------|--------5---------------5------|
E|-------------------------------|-------------------------------|
Eb D
e|3---3-- 3---3-- 3---3-- 3---3--|2---2-- 2---2-- 2---2-- 2---2--|
B|4---4---4---4---4---4---4---4--|3---3---3---3---3---3---3---3--|
G|3---3---3---3---3---3---3---3--|2---2---2---2---2---2---2---2--|
D|-------------------------------|-------------------------------|
A|-------------------------------|-------------------------------|
E|-------------------------------|-------------------------------|




xx X
Bb------- ------- ------- -------|------- ------- ------- -------|
F|--------5----------------------|-------------------------------|
C|7------------------------------|----5-----7-----------7-----8--|
G|----------------------------7--|-------------------------------|

e|------- 3------ ------- 3------|------- 3------ 3------ -------|
B|--------6---------------6------|--------6-------6--------------|
G|--------4---------------4------|--------4-------4--------------|
D|--------3---------------3------|--------3-------3--------------|
A|--------5---------------5------|--------5-------5--------------|
E|--------3---------------3------|--------3-------3--------------|
G7
e|3---3-- 3---3-- 3---3-- 3---3--|3---3-- 3---3-- 3---3-- 3---3--|
B|6---6---6---6---6---6---6---6--|6---6---6---6---6---6---6---6--|
G|4---4---4---4---4---4---4---4--|4---4---4---4---4---4---4---4--|
D|-------------------------------|-------------------------------|
A|-------------------------------|-------------------------------|
E|-------------------------------|-------------------------------|




X
Bb------- ------- ------- -------|------- ------- ------- -------|
F|-------------------------------|9-------------9H11---9-----7---|
C|9------------------------------|-------------------------------|
G|-------------------------------|-------------------------------|
I left you far behind
e|------- 5------ ------- 5------|------- 5------ ----5-- 5------|
B|--------5---------------5------|--------6-----------6---6------|
G|--------5---------------5------|--------7-----------7---7---7--|
D|--------7---------------7------|--------7-----------7---7---7--|
A|--------7---------------7------|--------5-----------5---5---5--|
E|--------5---------------5------|-------------------------------|
Am Dm
e|5---5-- 5---5-- 5---5-- 5---5--|5---5-- 5---5-- 5---5-- 5---5--|
B|5---5---5---5---5---5---5---5--|6---6---6---6---6---6---6---6--|
G|5---5---5---5---5---5---5---5--|7---7---7---7---7---7---7---7--|
D|-------------------------------|-------------------------------|
A|-------------------------------|-------------------------------|
E|-------------------------------|-------------------------------|





Bb------- ------- ------- -------|------- ------- ------- -------|
F|5---------------------------5--|7---------------------------7--|
C|-------------------------------|-------------------------------|
G|-------------------------------|-------------------------------|
The ruins of the life that you
e|------- 6------ ----6-- 6------|------- 3------ ----3-- 3------|
B|--------6-----------6---6------|--------5-----------5---5------|
G|--------7-----------7---7------|--------5-----------5---5------|
D|--------8-----------8---8------|--------5-----------5---5------|
A|--------8-----------8---8------|--------3-----------3---3------|
E|--------6-----------6---6------|-------------------------------|
Bb C
e|6---6-- 6---6-- 6---6-- 6---6--|3---3-- 3---3-- 3---3-- 3---3--|
B|6---6---6---6---6---6---6---6--|5---5---5---5---5---5---5---5--|
G|7---7---7---7---7---7---7---7--|5---5---5---5---5---5---5---5--|
D|-------------------------------|-------------------------------|
A|-------------------------------|-------------------------------|
E|-------------------------------|-------------------------------|





Bb------- ------- ------- -------|------- ------- ------- -------|
F|------------------------5------|------------5------------------|
C|7-------------------7----------|7---------------7-----7-----8--|
G|-------------------------------|-------------------------------|
had in mind
e|------- 3------ ------- 3---3--|------- 3------ 3------ 3---3--|
B|--------6---------------6---6--|--------6-------3-------6---3--|
G|--------4---------------4---4--|--------4-------4-------4---4--|
D|--------3---------------3---3--|--------3-------3-------3---3--|
A|--------5---------------5---5--|--------5-------5-------5---5--|
E|--------3---------------3---3--|--------3-------3-------3---3--|
G7
e|3---3-- 3---3-- 3---3-- 3---3--|3---3-- 3---3-- 3---3-- 3---3--|
B|6---6---6---6---6---6---6---6--|6---6---6---6---6---6---6---6--|
G|4---4---4---4---4---4---4---4--|4---4---4---4---4---4---4---4--|
D|-------------------------------|-------------------------------|
A|-------------------------------|-------------------------------|
E|-------------------------------|-------------------------------|





Bb------- ------- ------- -------|------- ------- ------- -------|
F|-------------------------------|9-------------9H11---9-----7---|
C|9---------------------------9--|-------------------------------|
G|-------------------------------|-------------------------------|
And though you still can see
e|------- 5------ ------- 5------|------- 5------ ------- 5------|
B|--------5---------------5------|--------6---------------6------|
G|--------5---------------5------|--------7---------------7---7--|
D|--------7---------------7------|--------7---------------7---7--|
A|--------7---------------7------|--------5---------------5---5--|
E|--------5---------------5------|-------------------------------|
Am Dm
e|5---5-- 5---5-- 5---5-- 5---5--|5---5-- 5---5-- 5---5-- 5---5--|
B|5---5---5---5---5---5---5---5--|6---6---6---6---6---6---6---6--|
G|5---5---5---5---5---5---5---5--|7---7---7---7---7---7---7---7--|
D|-------------------------------|-------------------------------|
A|-------------------------------|-------------------------------|
E|-------------------------------|-------------------------------|





Bb------- ------- ------- -------|------- ------- ------- -------|
F|5---------------------------5--|7---------------------------7--|
C|-------------------------------|-------------------------------|
G|-------------------------------|-------------------------------|
I know your mind's made up you're gon..
e|------- 6------ ----6-- 6------|------- 3------ ----3-- 3------|
B|--------6-----------6---6------|--------5-----------5---5------|
G|--------7-----------7---7------|--------5-----------5---5------|
D|--------8-----------8---8------|--------5-----------5---5------|
A|--------8-----------8---8------|--------3-----------3---3------|
E|--------6-----------6---6------|-------------------------------|
Bb C
e|6---6-- 6---6-- 6---6-- 6---6--|3---3-- 3---3-- 3---3-- 3---3--|
B|6---6---6---6---6---6---6---6--|5---5---5---5---5---5---5---5--|
G|7---7---7---7---7---7---7---7--|5---5---5---5---5---5---5---5--|
D|-------------------------------|-------------------------------|
A|-------------------------------|-------------------------------|
E|-------------------------------|-------------------------------|




X x x
Bb------- ------- ------- -------|------- ------- ------- -------|
F|-------------------------------|-------------------------------|
C|7---------------7-----------7--|9-----------9---------------7--|
G|-------------------------------|-------------------------------|
....na cause more misery
e|------- 3------ ----3-- -------|------- 5------ ----5-- ----3--|
B|--------3-----------3----------|--------5-----------5-------3--|
G|--------4-----------4----------|--------5-----------5-------4--|
D|--------5-----------5----------|--------7-----------7-------5--|
A|--------5-----------5----------|--------7-----------7-------5--|
E|--------3-----------3----------|--------5-----------5-------3--|
G Am
e|3---3-- 3---3-- 3---3-- 3---3--|5---5-- 5---5-- 5---5-- 5---5--|
B|3---3---3---3---3---3---3---3--|5---5---5---5---5---5---5---5--|
G|4---4---4---4---4---4---4---4--|5---5---5---5---5---5---5---5--|
D|-------------------------------|-------------------------------|
A|-------------------------------|-------------------------------|
E|-------------------------------|-------------------------------|




x x
Bb------- ------- ------- -------|------- ------- ------- -------|
F|-------------------------------|--------5-------4--------------|
C|--------4-------7---7---4------|--------------------7---4-\-2--|
G|5---5--------------------------|5---5--------------------------|
Do what you want to do and
e|6------ 6------ 6------ 6------|6------ 6---6-- ----6-- 6------|
B|5-------5-------5-------5------|5-------5---5-------5---5---3--|
G|3-------3-------3-------3------|3-------3---3-------3---3---3--|
D|5-------5-------5-------5------|5-------5---5-------5---5---3--|
A|3-------3-------3-------3------|3-------3---3-------3---3------|
E|-------------------------------|-------------------------------|
C
e|3---3-- 3---3-- 3---3-- 3---3--|3---3-- 3---3-- 3---3-- 3---3--|
B|5---5---5---5---5---5---5---5--|5---5---5---5---5---5---5---5--|
G|5---5---5---5---5---5---5---5--|5---5---5---5---5---5---5---5--|
D|-------------------------------|-------------------------------|
A|-------------------------------|-------------------------------|
E|-------------------------------|-------------------------------|




x x X XX
Bb------- ------- ------- -------|------- ------- ------- -------|
F|--------5-H-6-----------5-H-6--|-------------------------------|
C|7---7--------------------------|-----5-------------------------|
G|----------------7---7----------|7---------7-----5----3-----0---|
go where you're going to
e|------- 3---3-- ------- ----3--|------- 3------ ----3-- 3---3--|
B|--------6---6---------------6--|--------6-----------6---6---6--|
G|--------4---4---------------4--|--------4-----------4---4------|
D|--------3---3---------------3--|--------3-----------3---3------|
A|--------5---5---------------5--|--------5-----------5---5------|
E|--------3---3---------------3--|--------3-----------3---3------|
G7
e|3---3-- 3---3-- 3---3-- 3---3--|3---3-- 3---3-- 3---3-- 3---3--|
B|6---6---6---6---6---6---6---6--|6---6---6---6---6---6---6---6--|
G|4---4---4---4---4---4---4---4--|4---4---4---4---4---4---4---4--|
D|-------------------------------|-------------------------------|
A|-------------------------------|-------------------------------|
E|-------------------------------|-------------------------------|





Bb------- ------- ------- -------|------- ------- ------- -------|
F|--------------------5----------|-------------------------------|
C|-------------------------------|-------------------------------|
G|3---------------------------5-/|7-----------7---7--------------|
Think for yourself 'cause I won't be there with you
e|------- 6------ ------- 6------|------- 5------ ------- 5------|
B|--------8---------------8------|--------7---------------7------|
G|--------8---------------8------|--------7---------------7------|
D|--------8---------------8------|--------7---------------7------|
A|--------6---------------6------|--------5---------------5------|
E|-------------------------------|-------------------------------|
Eb D
e|3---3-- 3---3-- 3---3-- 3---3--|2---2-- 2---2-- 2---2-- 2---2--|
B|4---4---4---4---4---4---4---4--|3---3---3---3---3---3---3---3--|
G|3---3---3---3---3---3---3---3--|2---2---2---2---2---2---2---2--|
D|-------------------------------|-------------------------------|
A|-------------------------------|-------------------------------|
E|-------------------------------|-------------------------------|




x x
Bb------- ------- ------- -------|------- ------- ------- -------|
F|--------5----------------------|-------------------------------|
C|7---------------------------5--|--------7-------7-----7-----8--|
G|------------------------7------|-------------------------------|

e|------- 3------ 3---3-- ----3--|------- 3---3-- 3---3-- -------|
B|--------6-------6---6-------6--|--------6---6---6---3----------|
G|--------4-------4---4-------4--|--------4---4---4---4----------|
D|--------3-------3-----------3--|--------3---3---3---3----------|
A|--------5-------5-----------5--|--------5---5---5---5----------|
E|--------3-------3-----------3--|--------3---3---3---3----------|
G7
e|3---3-- 3---3-- 3---3-- 3---3--|3---3-- 3---3-- 3---3-- 3---3--|
B|6---6---6---6---6---6---6---6--|6---6---6---6---6---6---6---6--|
G|4---4---4---4---4---4---4---4--|4---4---4---4---4---4---4---4--|
D|-------------------------------|-------------------------------|
A|-------------------------------|-------------------------------|
E|-------------------------------|-------------------------------|




x
Bb------- ------- ------- -------|------- ------- ------- -------|
F|-------------------------------|9-------------9H11---9-----7---|
C|9------------------------------|-------------------------------|
G|-------------------------------|-------------------------------|
Although your mind's opaque
e|------- 5------ ------- 5------|------- 5------ ------- 5------|
B|--------5---------------5------|--------6---------------6------|
G|--------5---------------5------|--------7---------------7---7--|
D|--------7---------------7------|--------7---------------7---7--|
A|--------7---------------7------|--------5---------------5------|
E|--------5---------------5------|-------------------------------|
Am Dm
e|5---5-- 5---5-- 5---5-- 5---5--|5---5-- 5---5-- 5---5-- 5---5--|
B|5---5---5---5---5---5---5---5--|6---6---6---6---6---6---6---6--|
G|5---5---5---5---5---5---5---5--|7---7---7---7---7---7---7---7--|
D|-------------------------------|-------------------------------|
A|-------------------------------|-------------------------------|
E|-------------------------------|-------------------------------|





Bb------- ------- ------- -------|------- ------- ------- -------|
F|5---------------------------5--|7---------------------------7--|
C|-------------------------------|-------------------------------|
G|-------------------------------|-------------------------------|
Try thinking more if just for your
e|------- 6------ ------- 6------|------- 3------ ------- 3------|
B|--------6---------------6------|--------5---------------5------|
G|--------7---------------7------|--------5---------------5------|
D|--------8---------------8------|--------5---------------5------|
A|--------8---------------8------|--------3---------------3------|
E|--------6---------------6------|-------------------------------|
Bb C
e|6---6-- 6---6-- 6---6-- 6---6--|3---3-- 3---3-- 3---3-- 3---3--|
B|6---6---6---6---6---6---6---6--|5---5---5---5---5---5---5---5--|
G|7---7---7---7---7---7---7---7--|5---5---5---5---5---5---5---5--|
D|-------------------------------|-------------------------------|
A|-------------------------------|-------------------------------|
E|-------------------------------|-------------------------------|





Bb------- ------- ------- -------|------- ------- ------- -------|
F|-------------------------------|----------------5--------------|
C|7------------------------------|7-------------------7---7---8--|
G|-------------------------------|-------------------------------|
own sake
e|------- 3------ ------- 3---3--|------- 3------ 3---3-- 3------|
B|--------6---------------6---3--|--------6-------6---6---6------|
G|--------4---------------4---4--|--------4-------4---4---4------|
D|--------3---------------3---3--|--------3-------3---3---3------|
A|--------5---------------5---5--|--------5-------5---5---5------|
E|--------3---------------3---3--|--------3-------3---3---3------|
G7
e|3---3-- 3---3-- 3---3-- 3---3--|3---3-- 3---3-- 3---3-- 3---3--|
B|6---6---6---6---6---6---6---6--|6---6---6---6---6---6---6---6--|
G|4---4---4---4---4---4---4---4--|4---4---4---4---4---4---4---4--|
D|-------------------------------|-------------------------------|
A|-------------------------------|-------------------------------|
E|-------------------------------|-------------------------------|





Bb------- ------- ------- -------|------- ------- ------- -------|
F|-------------------------------|9-------------9H11---9-----7---|
C|9---------------------------9--|-------------------------------|
G|-------------------------------|-------------------------------|
The future still looks good
e|------- 5---5-- ------- 5---5--|5------ 5---5-- ----5-- 5------|
B|--------5---5-----------5---5--|6-------6---6-------6---6------|
G|--------5---5-----------5---5--|7-------7---7-------7---7------|
D|--------7---7-----------7---7--|7-------7---7-------7---7------|
A|--------7---7-----------7---7--|5-------5---5-------5---5------|
E|--------5---5-----------5---5--|-------------------------------|
Am Dm
e|5---5-- 5---5-- 5---5-- 5---5--|5---5-- 5---5-- 5---5-- 5---5--|
B|5---5---5---5---5---5---5---5--|6---6---6---6---6---6---6---6--|
G|5---5---5---5---5---5---5---5--|7---7---7---7---7---7---7---7--|
D|-------------------------------|-------------------------------|
A|-------------------------------|-------------------------------|
E|-------------------------------|-------------------------------|





Bb------- ------- ------- -------|------- ------- ------- -------|
F|5---------------------------5--|7---------------------------7--|
C|-------------------------------|-------------------------------|
G|-------------------------------|-------------------------------|
And you've got time to rectify
e|------- 6------ 6------ 6------|------- 3------ ----3-- 3------|
B|--------6-------6-------6------|--------5-----------5---5------|
G|--------7-------7-------7------|--------5-----------5---5------|
D|--------8-------8-------8------|--------5-----------5---5------|
A|--------8-------8-------8------|--------3-----------3---3------|
E|--------6-------6-------6------|-------------------------------|
Bb C
e|6---6-- 6---6-- 6---6-- 6---6--|3---3-- 3---3-- 3---3-- 3---3--|
B|6---6---6---6---6---6---6---6--|5---5---5---5---5---5---5---5--|
G|7---7---7---7---7---7---7---7--|5---5---5---5---5---5---5---5--|
D|-------------------------------|-------------------------------|
A|-------------------------------|-------------------------------|
E|-------------------------------|-------------------------------|




X x x
Bb------- ------- ------- -------|------- ------- ------- -------|
F|-------------------------------|-------------------------------|
C|7---------------------------7--|9---------------------------7--|
G|-------------------------------|-------------------------------|
all the things that you should
e|------- 3------ ----3-- ----3--|------- 5---5-- ----5-- 5---3--|
B|--------6-----------6-------3--|--------5---5-------5---5---3--|
G|--------4-----------4-------4--|--------5---5-------5---5---4--|
D|--------3-----------3-------3--|--------7---7-------7---7---5--|
A|--------5-----------5-------5--|--------7---7-------7---7---5--|
E|--------3-----------3-------3--|--------5---5-------5---5---3--|
G Am
e|3---3-- 3---3-- 3---3-- 3---3--|5---5-- 5---5-- 5---5-- 5---5--|
B|3---3---3---3---3---3---3---3--|5---5---5---5---5---5---5---5--|
G|4---4---4---4---4---4---4---4--|5---5---5---5---5---5---5---5--|
D|-------------------------------|-------------------------------|
A|-------------------------------|-------------------------------|
E|-------------------------------|-------------------------------|




X X
Bb------- ------- ------- -------|------- ------- ------- -------|
F|-------------------------------|--------5-------4--------------|
C|--------4-------7---7---4------|--------------------7---4-\-2--|
G|5------------------------------|5---5--------------------------|
Do what you want to do and
e|6------ 6------ 6------ 6------|------- 6------ ----6-- 6---6--|
B|5-------5-------5-------5------|--------5-----------5---5---5--|
G|3-------3-------3-------3------|--------3-----------3---3---3--|
D|5-------5-------5-------5------|--------5-----------5---5---5--|
A|3-------3-------3-------3------|--------3-----------3---3---3--|
E|-------------------------------|-------------------------------|
C
e|3---3-- 3---3-- 3---3-- 3---3--|3---3-- 3---3-- 3---3-- 3---3--|
B|5---5---5---5---5---5---5---5--|5---5---5---5---5---5---5---5--|
G|5---5---5---5---5---5---5---5--|5---5---5---5---5---5---5---5--|
D|-------------------------------|-------------------------------|
A|-------------------------------|-------------------------------|
E|-------------------------------|-------------------------------|




x x XX x x
Bb------- ------- ------- -------|------- ------- ------- -------|
F|--------5----------------------|-------------------------------|
C|7---7-----------7---7---7------|-----5-------------------------|
G|-------------------------------|7---------7-----5-----3-----0--|
go where you're going to
e|------- 3---3-- ------- -------|3------ 3------ ------- 3------|
B|--------6---6------------------|6-------6---------------6------|
G|--------4---4------------------|4-------4---------------4------|
D|--------3---3------------------|3-------3---------------3------|
A|--------5---5------------------|5-------5---------------5------|
E|--------3---3------------------|3-------3---------------3------|
G7
e|3---3-- 3---3-- 3---3-- 3---3--|3---3-- 3---3-- 3---3-- 3---3--|
B|6---6---6---6---6---6---6---6--|6---6---6---6---6---6---6---6--|
G|4---4---4---4---4---4---4---4--|4---4---4---4---4---4---4---4--|
D|-------------------------------|-------------------------------|
A|-------------------------------|-------------------------------|
E|-------------------------------|-------------------------------|





Bb------- ------- ------- -------|------- ------- ------- -------|
F|-------------------------------|-------------------------------|
C|-------------------------------|------------------------5---6--|
G|3---------------------------5--|7-------------------7----------|
Think for yourself 'cause I won't be there with you
e|6------ 6------ 6------ 6------|5------ 5------ ------- 5------|
B|8-------8-------8-------8------|7-------7---------------7------|
G|8-------8-------8-------8------|7-------7---------------7------|
D|8-------8-------8-------8------|7-------7---------------7------|
A|6-------6-------6-------6------|5-------5---------------5------|
E|-------------------------------|-------------------------------|
Eb D
e|3---3-- 3---3-- 3---3-- 3---3--|2---2-- 2---2-- 2---2-- 2---2--|
B|4---4---4---4---4---4---4---4--|3---3---3---3---3---3---3---3--|
G|3---3---3---3---3---3---3---3--|2---2---2---2---2---2---2---2--|
D|-------------------------------|-------------------------------|
A|-------------------------------|-------------------------------|
E|-------------------------------|-------------------------------|




x XX
Bb------- ------- ------- -------|------- ------- ------- -------|
F|-------------------------------|-------------------------------|
C|7-------7----------------------|7-------7-------7P5------------|
G|----------------------------7--|--------------------7---5---3--|

e|------- 3---3-- ------- 3------|------- 3------ ----3-- 3---3--|
B|--------6---6-----------6------|--------6-----------6---6---3--|
G|--------4---4-----------4------|--------4-----------4---4---4--|
D|--------3---3-----------3------|--------3-----------3---3---3--|
A|--------5---5-----------5------|--------5-----------5---5---5--|
E|--------3---3-----------3------|--------3-----------3---3---3--|
G7
e|3---3-- 3---3-- 3---3-- 3---3--|3---3-- 3---3-- 3---3-- 3---3--|
B|6---6---6---6---6---6---6---6--|6---6---6---6---6---6---6---6--|
G|4---4---4---4---4---4---4---4--|4---4---4---4---4---4---4---4--|
D|-------------------------------|-------------------------------|
A|-------------------------------|-------------------------------|
E|-------------------------------|-------------------------------|




X x x x x X
Bb------- ------- ------- -------|------- ------- ------- -------|
F|-------------------------------|----5---------5P4--------------|
C|-------------------------------|--------------------7---4-\-2--|
G|3---5-----------3---5---5---3--|5------------------------------|
Do what you want to do and
e|------- 6------ 6---6-- 6------|6------ 6------ 6---6-- 6------|
B|--------5-------5---5---5------|5-------5-------5---5---5---3--|
G|--------3-------3---3---3------|3-------3-------3---3---3---3--|
D|--------5-------5---5---5------|5-------5-------5---5---5---3--|
A|--------3-------3---3---3------|3-------3-------3---3---3------|
E|-------------------------------|-------------------------------|
C
e|3---3-- 3---3-- 3---3-- 3---3--|3---3-- 3---3-- 3---3-- 3---3--|
B|5---5---5---5---5---5---5---5--|5---5---5---5---5---5---5---5--|
G|5---5---5---5---5---5---5---5--|5---5---5---5---5---5---5---5--|
D|-------------------------------|-------------------------------|
A|-------------------------------|-------------------------------|
E|-------------------------------|-------------------------------|




xx xx X
Bb------- ------- ------- -------|------- ------- ------- -------|
F|--------5H6-------------5H6----|-------------------------------|
C|7---7--------------------------|-----5-------------------------|
G|----------------7---7----------|7---------7-----5-----3-----0--|
go where you're going to
e|------- 3------ ----3-- ----3--|------- 3------ ----3-- 3------|
B|--------6-----------6-------6--|--------6-----------6---6------|
G|--------4-----------4-------4--|--------4-----------4---4------|
D|--------3-----------3-------3--|--------3-----------3---3------|
A|--------5-----------5-------5--|--------5-----------5---5------|
E|--------3-----------3-------3--|--------3-----------3---3------|
G7
e|3---3-- 3---3-- 3---3-- 3---3--|3---3-- 3---3-- 3---3-- 3---3--|
B|6---6---6---6---6---6---6---6--|6---6---6---6---6---6---6---6--|
G|4---4---4---4---4---4---4---4--|4---4---4---4---4---4---4---4--|
D|-------------------------------|-------------------------------|
A|-------------------------------|-------------------------------|
E|-------------------------------|-------------------------------|





Bb------- ------- ------- -------|------- ------- ------- -------|
F|-------------------------------|-------------------------------|
C|-------------------------------|-------------------------------|
G|3-----------3---3-----------5--|7-------7-------7---7-------7--|
Think for yourself 'cause I won't be there with you
e|6------ 6------ 6------ -------|5------ 5------ 5------ 5------|
B|8-------8-------8--------------|7-------7-------7-------7------|
G|8-------8-------8--------------|7-------7-------7-------7------|
D|8-------8-------8--------------|7-------7-------7-------7------|
A|6-------6-------6--------------|5-------5-------5-------5------|
E|-------------------------------|-------------------------------|
Eb D
e|3---3-- 3---3-- 3---3-- 3---3--|2---2-- 2---2-- 2---2-- 2---2--|
B|4---4---4---4---4---4---4---4--|3---3---3---3---3---3---3---3--|
G|3---3---3---3---3---3---3---3--|2---2---2---2---2---2---2---2--|
D|-------------------------------|-------------------------------|
A|-------------------------------|-------------------------------|
E|-------------------------------|-------------------------------|




X X X X X
Bb------- ------- ------- -------|------- ------- ------- -------|
F|-------------------------------|-------------------------------|
C|-------------------------------|7-------7-------7---7----------|
G|5-------5-------5---5-------5--|----------------------------7--|

e|3------ 3------ ----3-- -------|------- 3---3-- ----3-- 3------|
B|5-------5-----------5----------|--------6---6-------6---6------|
G|3-------3-----------3----------|--------4---4-------4---4------|
D|5-------5-----------5----------|--------3---3-------3---3------|
A|3-------3-----------3----------|--------5---5-------5---5------|
E|-------------------------------|--------3---3-------3---3------|
C G7
e|3---3-- 3---3-- 3---3-- 3---3--|3---3-- 3---3-- 3---3-- 3---3--|
B|5---5---5---5---5---5---5---5--|6---6---6---6---6---6---6---6--|
G|5---5---5---5---5---5---5---5--|4---4---4---4---4---4---4---4--|
D|-------------------------------|-------------------------------|
A|-------------------------------|-------------------------------|
E|-------------------------------|-------------------------------|





Bb------- ------- ------- -------|------- ------- ------- -------|
F|-------------------------------|-------------------------------|
C|-------------------------------|-------------------------------|
G|3-------------------3-------5--|7-------7-------7---7-------7--|
Think for yourself 'cause I won't be there with you
e|6------ 6------ ----6-- 6------|5------ ------- 5------ 5------|
B|8-------8-----------8---8------|7---------------7-------7------|
G|8-------8-----------8---8------|7---------------7-------7------|
D|8-------8-----------8---8------|7---------------7-------7------|
A|6-------6-----------6---6------|5---------------5-------5------|
E|-------------------------------|-------------------------------|
Eb D
e|3---3-- 3---3-- 3---3-- 3---3--|2---2-- 2---2-- 2---2-- 2---2--|
B|4---4---4---4---4---4---4---4--|3---3---3---3---3---3---3---3--|
G|3---3---3---3---3---3---3---3--|2---2---2---2---2---2---2---2--|
D|-------------------------------|-------------------------------|
A|-------------------------------|-------------------------------|
E|-------------------------------|-------------------------------|




X x x X
Bb------- ------- ------- -------|------- ------- ------- -------|
F|--------5-------5-------5------|-------------------------------|
C|7------------------------------|7-------5---7------------------|
G|-------------------------------|----7--------------------------|

e|6------ 6------ ----6-- 6---6--|3---3-- 3---3-- ------- -------|
B|5-------5-----------5---5---5--|6---6---6---6------------------|
G|3-------3-----------3---3---3--|4---4---4---4------------------|
D|5-------5-----------5---5---5--|3---3---3---3------------------|
A|3-------3-----------3---3---3--|5---5---5---5------------------|
E|-------------------------------|3---3---3---3------------------|
C G7
e|3---3-- 3---3-- 3---3-- 3---3--|3---3-- 3---3-- ------- -------|
B|5---5---5---5---5---5---5---5--|6---6---6---6------------------|
G|5---5---5---5---5---5---5---5--|4---4---4---4------------------|
D|-------------------------------|-------------------------------|
A|-------------------------------|-------------------------------|
E|-------------------------------|-------------------------------|









B Bend
R Release
/ Slide up
\ Slide down
H Hammer-on
P Pull-off
~ Vibrato
+ Harmonic
x Mute note
. Play note like a dot in standard notation
^ Ties two notes together
(. Pause

pjvill

Submitted by pjvill at Thu 15 Dec, 2005 10:06 am

Author: ?
Composer: ?
Publisher: ?
Language: English

Reactions

CommonCrawl [Bot]

Follow Muzikum