The Beatles

The Beatles
Things We Said Today Ver 2 (Guitar tab)

-------------------------------------------------------------------
THE BEATLES - THINGS WE SAID TODAY (Lennon/McCartney) From A HARD
DAY'S NIGHT album. Released on 20th March 1964

-------------------------------------------------------------------

Tabbed by:PJVillanueva






You say you will love me
If I have to go.
You'll be thinking of me,
Somehow I will know.
Someday when I'm lonely,
Wishing you weren't so far away,
Then I will remember
Things we said today.
You say you'll be mine, girl,
'Til the end of time.
These days such a kind girl
Seems so hard to find.
Someday when we're dreaming,
Deep in love, not a lot to say.
Then we will remember
Things we said today.
Me, I'm just the lucky kind.
Love to hear you say that love is luck.
And, though we may be blind,
Love is here to stay. And that's enough
To make you mine, girl,
Be the only one.
Love me all the time, girl.
We'll go on and on.
Someday when we're dreaming,
Deep in love, not a lot to say.
Then we will remember
Things we said today.
Me, I'm just the lucky kind.
Love to hear you say that love is luck.
And, though we may be blind,
Love is here to stay. And that's enough
To make you mine, girl,
Be the only one
Love me all the time, girl.
We'll go on and on.
Someday when we're dreaming,
Deep in love, not a lot to say.
Then we will remember
Things we said today.






e|------- ------- ------- -------|------- ------- ------- ----0-0|
B|-------------------------------|----------------------------1-1|
G|-------------------------------|----------------------------2-2|
D|-------------------------------|----------------------------2-2|
A|-------------------------------|----------------------------0-0|
E|-------------------------------|-------------------------------|




e|0------ ------- ------- ----0-0|0------ ------- ------- ----0-0|
B|1---------------------------1-1|1---------------------------1-1|
G|2---------------------------2-2|2---------------------------2-2|
D|2---------------------------2-2|2---------------------------2-2|
A|0---------------------------0-0|0---------------------------0-0|
E|-------------------------------|-------------------------------|

e|------- 5------ ----5-- -------|------- 5------ ----5-- -------|
B|--------5-----------5----------|--------5-----------5----------|
G|--------5-----------5----------|--------5-----------5----------|
D|-------------------------------|-------------------------------|
A|-------------------------------|-------------------------------|
E|-------------------------------|-------------------------------|


Am Em Am
e|0------ 0------ ----0-- -------|0------ 0------ 0---0-- ----0--|
B|1-------1-----------0----------|1-------1-------1---1-------1--|
G|2-------2-----------0----------|2-------2-------2---2-------2--|
D|2-------2-----------2----------|2-------2-------2---2-------2--|
A|0-------0-----------2----------|0-------0-------0---0-------0--|
E|--------------------0----------|-------------------------------|
You say you will love me
e|------- 5------ ----3-- -------|------- 5------ ----0-- -------|
B|--------5-----------3----------|--------5-----------5----------|
G|--------5-----------4----------|--------5-----------7----------|
D|-------------------------------|-------------------------------|
A|-------------------------------|-------------------------------|
E|-------------------------------|-------------------------------|



Em Am
e|0------ 0---0-- 0---0-- -------|0------ 0---0-- 0---0-- ----0--|
B|1-------1---1---1---0----------|1-------1---1---1---1-------1--|
G|2-------2---2---2---0----------|2-------2---2---2---2-------2--|
D|2-------2---2---2---2----------|2-------2---2---2---2-------2--|
A|0-------0---0---0---2----------|0-------0---0---0---0-------0--|
E|--------------------0----------|-------------------------------|
If I have to go
e|------- 5------ ----7-- -------|------- 5------ ----3-- -------|
B|--------5-----------5----------|--------5-----------3----------|
G|--------5-----------7----------|--------5-----------4----------|
D|-------------------------------|-------------------------------|
A|-------------------------------|-------------------------------|
E|-------------------------------|-------------------------------|


Em Am
e|0------ 0------ 0---0-- ----0--|0------ 0---0-- ----0-- ----0--|
B|1-------1-------1---0-------1--|1-------1---1-------1-------1--|
G|2-------2-------2---0-------2--|2-------2---2-------2-------2--|
D|2-------2-------2---2-------2--|2-------2---2-------2-------2--|
A|0-------0-------0---2-------0--|0-------0---0-------0-------0--|
E|--------------------0----------|-------------------------------|
You'll be thinking of me
e|------- 5------ ----3-- -------|------- 5------ ----3-- -------|
B|--------5-----------3----------|--------5-----------3----------|
G|--------5-----------4----------|--------5-----------4----------|
D|-------------------------------|-------------------------------|
A|-------------------------------|-------------------------------|
E|-------------------------------|-------------------------------|



Em Am
e|0------ 0------ ----0-- ----0--|0------ 0------ ----0-- ----0--|
B|1-------1-----------0-------1--|1-------1-----------1-------1--|
G|2-------2-----------0-------2--|2-------2-----------2-------2--|
D|2-------2-----------2-------2--|2-------2-----------2-------2--|
A|0-------0-----------2-------0--|0-------0-----------0-------0--|
E|--------------------0----------|-------------------------------|
Somehow I will know
e|------- 5------ ----7-- -------|------- ------- ------- ----3--|
B|--------5-----------5----------|----------------------------5--|
G|--------5-----------7----------|----------------------------5--|
D|-------------------------------|----------------------------5--|
A|-------------------------------|-------------------------------|
E|-------------------------------|-------------------------------|


C
e|0------ 0------ ----0-- -------|0------ 0------ ----0-- ----0--|
B|1-------1-----------1----------|1-------1-----------1-------1--|
G|0-------0-----------0----------|0-------0-----------0-------0--|
D|2-------2-----------2----------|2-------2-----------2-------2--|
A|3-------3-----------3----------|3-------3-----------3-------3--|
E|-------------------------------|-------------------------------|
Someday when I'm lonely,
e|------- ------- ------- -------|3------ ------- ------- -------|
B|-------------------------------|3------------------------------|
G|-------------------------------|3------------------------------|
D|-------------------------------|2------------------------------|
A|-------------------------------|3------------------------------|
E|-------------------------------|-------------------------------|


F Bb
e|1------ 1------ ----1-- ----1--|1------ 1------ ----1-- ----1--|
B|1-------1-----------1-------1--|3-------3-----------3-------3--|
G|2-------2-----------2-------2--|3-------3-----------3-------3--|
D|3-------3-----------3-------3--|3-------3-----------3-------3--|
A|3-------3-----------3-------3--|1-------1-----------1-------1--|
E|1-------1-----------1-------1--|-------------------------------|
Wishing you weren't so far away
e|1------ ------- ------- -------|6------ ------- ------- -------|
B|1------------------------------|6------------------------------|
G|2------------------------------|7------------------------------|
D|3------------------------------|8------------------------------|
A|3------------------------------|8------------------------------|
E|1------------------------------|6------------------------------|


Am Em Am
e|0------ 0---0-- ----0-- ----0--|0------ 0------ ----0-- ----0--|
B|1-------1---1-------0-------1--|1-------1-----------1-------1--|
G|2-------2---2-------0-------2--|2-------2-----------2-------2--|
D|2-------2---2-------2-------2--|2-------2-----------2-------2--|
A|0-------0---0-------2-------0--|0-------0-----------0-------0--|
E|--------------------0----------|-------------------------------|
Then I will re.....member
e|------- 5------ ----3-- -------|------- 5------ ----0-- -------|
B|--------5-----------3----------|--------5-----------5----------|
G|--------5-----------4----------|--------5-----------7----------|
D|-------------------------------|-------------------------------|
A|-------------------------------|-------------------------------|
E|-------------------------------|-------------------------------|


Em Am
e|0------ 0------ ----0-- -------|0------ 0------ ----0-- ----0-0|
B|1-------1-----------0----------|1-------1-----------1-------1-1|
G|2-------2-----------0----------|2-------2-----------2-------2-2|
D|2-------2-----------2----------|2-------2-----------2-------2-2|
A|0-------0-----------2----------|0-------0-----------0-------0-0|
E|--------------------0----------|-------------------------------|
Things we said today
e|------- 5------ ----3-- -------|------- 5------ ----5-- -------|
B|--------5-----------3----------|--------5-----------5----------|
G|--------5-----------4----------|--------5-----------5----------|
D|-------------------------------|-------------------------------|
A|-------------------------------|-------------------------------|
E|-------------------------------|-------------------------------|



e|0------ 0------ 0---0-- 0---0--|
B|1-------1-------1---1---1---1--|
G|2-------2-------2---2---2---2--|
D|2-------2-------2---2---2---2--|
A|0-------0-------0---0---0---0--|
E|-------------------------------|


Em Am
e|0------ 0------ ----0-- ----0--|------- 0------ ----0-- ----0--|
B|1-------1-----------0-------1--|--------1-----------1-------1--|
G|2-------2-----------0-------2--|--------2-----------2-------2--|
D|2-------2-----------2-------2--|--------2-----------2-------2--|
A|0-------0-----------2-------0--|--------0-----------0-------0--|
E|--------------------0----------|-------------------------------|
You say you'll be mine, girl
e|------- ------- ----3-- -------|------- 5------ ------- -------|
B|--------------------3----------|--------5----------------------|
G|--------------------4----------|--------5----------------------|
D|-------------------------------|-------------------------------|
A|-------------------------------|-------------------------------|
E|-------------------------------|-------------------------------|



Em Am
e|0------ 0------ ----0-- ----0--|------- 0------ ----0-- ----0--|
B|1-------1-----------0-------1--|--------1-----------1-------1--|
G|2-------2-----------0-------2--|--------2-----------2-------2--|
D|2-------2-----------2-------2--|--------2-----------2-------2--|
A|0-------0-----------2-------0--|--------0-----------0-------0--|
E|--------------------0----------|-------------------------------|
Till the end of time
e|------- 5------ ----3-- -------|5------ ------- ------- -------|
B|--------5-----------3----------|5------------------------------|
G|--------5-----------4----------|5------------------------------|
D|-------------------------------|-------------------------------|
A|-------------------------------|-------------------------------|
E|-------------------------------|-------------------------------|


Em Am
e|0------ 0------ ----0-- -------|0------ 0------ ----0-- ----0--|
B|1-------1-----------0----------|1-------1-----------1-------1--|
G|2-------2-----------0----------|2-------2-----------2-------2--|
D|2-------2-----------2----------|2-------2-----------2-------2--|
A|0-------0-----------2----------|0-------0-----------0-------0--|
E|--------------------0----------|-------------------------------|
These days such a kind girl
e|------- 5------ ----3-- -------|----5-- ------- ----3-- -------|
B|--------5-----------3----------|----5---------------3----------|
G|--------5-----------4----------|----5---------------4----------|
D|-------------------------------|-------------------------------|
A|-------------------------------|-------------------------------|
E|-------------------------------|-------------------------------|



Em
e|0------ 0------ ----0-- ----0--|------- 0------ ----0-- -------|
B|1-------1-----------0-------1--|--------1-----------1----------|
G|2-------2-----------0-------2--|--------2-----------2----------|
D|2-------2-----------2-------2--|--------2-----------2----------|
A|0-------0-----------2-------0--|--------0-----------0----------|
E|--------------------0----------|-------------------------------|
Seems so hard to find
e|------- 5------ ----3-- -------|------- ------- ------- ----3--|
B|--------5-----------3----------|----------------------------5--|
G|--------5-----------4----------|----------------------------5--|
D|-------------------------------|----------------------------5--|
A|-------------------------------|----------------------------3--|
E|-------------------------------|-------------------------------|


C
e|0------ 0------ 0---0-- ----0--|0------ 0------ 0---0-- ----0--|
B|1-------1-------1---1-------1--|1-------1-------1---1-------1--|
G|0-------0-------0---0-------0--|0-------0-------0---0-------0--|
D|2-------2-------2---2-------2--|2-------2-------2---2-------2--|
A|3-------3-------3---3-------3--|3-------3-------3---3-------3--|
E|-------------------------------|-------------------------------|
Someday when we're dreaming
e|------- ------- ------- -------|3------ ------- ------- -------|
B|-------------------------------|3------------------------------|
G|-------------------------------|3------------------------------|
D|-------------------------------|2------------------------------|
A|-------------------------------|3------------------------------|
E|-------------------------------|-------------------------------|


F Bb
e|1------ 1------ ----1-- ----1--|1------ 1------ ----1-- ----0--|
B|1-------1-----------1-------1--|3-------3-----------3-------1--|
G|2-------2-----------2-------2--|3-------3-----------3-------2--|
D|3-------3-----------3-------3--|3-------3-----------3-------2--|
A|3-------3-----------3-------3--|1-------1-----------1-------0--|
E|1-------1-----------1-------1--|-------------------------------|
Deep in love not a lot to say
e|1------ ------- ------- -------|6------ ------- ------- -------|
B|1------------------------------|6------------------------------|
G|2------------------------------|7------------------------------|
D|3------------------------------|8------------------------------|
A|3------------------------------|8------------------------------|
E|1------------------------------|6------------------------------|


Am Em Am
e|0------ 0------ ----0-- -------|0------ 0------ ----0-- ----0--|
B|1-------1-----------0----------|1-------1-----------1-------1--|
G|2-------2-----------0----------|2-------2-----------2-------2--|
D|2-------2-----------2----------|2-------2-----------2-------2--|
A|0-------0-----------2----------|0-------0-----------0-------0--|
E|--------------------0----------|-------------------------------|
Then we will re.....member
e|------- 5------ ----3-- -------|------- 5------ ----0-- -------|
B|--------5-----------3----------|--------5-----------5----------|
G|--------5-----------4----------|--------5-----------7----------|
D|-------------------------------|-------------------------------|
A|-------------------------------|-------------------------------|
E|-------------------------------|-------------------------------|


Em A
e|0------ 0------ ----0-- -------|0------ 0------ 0---0-- 0---0--|
B|1-------1-----------0----------|2-------2-------2---2---2---2--|
G|2-------2-----------0----------|2-------2-------2---2---2---2--|
D|2-------2-----------2----------|2-------2-------2---2---2---2--|
A|0-------0-----------2----------|0-------0-------0---0---0---0--|
E|--------------------0----------|-------------------------------|
Things we said today
e|------- 5------ ----3-- -------|5------ ------- ------- -------|
B|--------5-----------3----------|5------------------------------|
G|--------5-----------4----------|6------------------------------|
D|-------------------------------|7------------------------------|
A|-------------------------------|7------------------------------|
E|-------------------------------|5------------------------------|


D
e|0------ 0------ 0---0-- 0---0--|2------ 2------ 2---2-- 2---2--|
B|2-------2-------2---2---2---2--|3-------3-------3---3---3---3--|
G|2-------2-------2---2---2---2--|2-------2-------2---2---2---2--|
D|2-------2-------2---2---2---2--|0-------0-------0---0---0---0--|
A|0-------0-------0---0---0---0--|-------------------------------|
E|-------------------------------|-------------------------------|
Me, I'm just a lucky kind


B E
e|2------ 2------ 2---2-- 2---2--|0------ 0---0-- 0---0-- 0------|
B|4-------4-------4---4---4---4--|0-------0---0---0---0---0------|
G|4-------4-------4---4---4---4--|1-------1---1---1---1---1------|
D|4-------4-------4---4---4---4--|2-------2---2---2---2---2------|
A|2-------2-------2---2---2---2--|2-------2---2---2---2---2------|
E|-------------------------------|0-------0---0---0---0---0------|
Love to hear you say that love is luck
e|------- 7------ ----7-- -------|------- 0------ ----0-- -------|
B|--------7-----------7----------|--------5-----------5----------|
G|--------8-----------8----------|--------7-----------7----------|
D|--------9-----------9----------|--------6-----------6----------|
A|--------9-----------9----------|--------7-----------7----------|
E|--------7-----------7----------|--------0-----------0----------|


A D
e|0------ 0------ 0---0-- 0---0--|2------ 2------ 2---2-- 2---2--|
B|2-------2-------2---2---2---2--|3-------3-------3---3---3---3--|
G|2-------2-------2---2---2---2--|2-------2-------2---2---2---2--|
D|2-------2-------2---2---2---2--|0-------0-------0---0---0---0--|
A|0-------0-------0---0---0---0--|-------------------------------|
E|-------------------------------|-------------------------------|
And though we may be blind
e|------- 5------ ----5-- -------|2------ ------- ------- -------|
B|--------5-----------5----------|3------------------------------|
G|--------6-----------6----------|2------------------------------|
D|--------7-----------7----------|0------------------------------|
A|--------7-----------7----------|-------------------------------|
E|--------5-----------5----------|-------------------------------|



B Bb
e|2------ 2------ 2---2-- -------|1------ 1------ 1---1-- 1------|
B|4-------4-------4---4----------|3-------3-------3---3---3------|
G|4-------4-------4---4----------|3-------3-------3---3---3------|
D|4-------4-------4---4----------|3-------3-------3---3---3------|
A|2-------2-------2---2----------|1-------1-------1---1---1------|
E|-------------------------------|-------------------------------|
Love is here to stay and that's enough
e|------- 7------ ----7-- -------|------- 6------ ----6-- -------|
B|--------7-----------7----------|--------6-----------6----------|
G|--------8-----------8----------|--------7-----------7----------|
D|--------9-----------9----------|--------8-----------8----------|
A|--------9-----------9----------|--------8-----------8----------|
E|--------7-----------7----------|--------6-----------6----------|


Am Em Am
e|0------ 0------ ----0-- ----0--|------- 0------ ----0-- ----0--|
B|1-------1-----------0-------1--|--------1-----------1-------1--|
G|2-------2-----------0-------2--|--------2-----------2-------2--|
D|2-------2-----------2-------3--|--------2-----------2-------2--|
A|0-------0-----------2-------0--|--------0-----------0-------0--|
E|--------------------0----------|-------------------------------|
to make you mine, girl
e|------- 5------ ----3-- -------|------- 5------ ----0-- -------|
B|--------5-----------3----------|--------5-----------5----------|
G|--------5-----------4----------|--------5-----------7----------|
D|-------------------------------|-------------------------------|
A|-------------------------------|-------------------------------|
E|-------------------------------|-------------------------------|



Em Am
e|0------ 0------ ----0-- ----0--|------- 0------ ----0-- ----0--|
B|1-------1-----------0-------1--|--------1-----------1-------1--|
G|2-------2-----------0-------2--|--------2-----------2-------2--|
D|2-------2-----------2-------2--|--------2-----------2-------2--|
A|0-------0-----------2-------0--|--------0-----------0-------0--|
E|--------------------0----------|-------------------------------|
Be the only one
e|------- 5------ ----7-- -------|------- 5------ ----3-- -------|
B|--------5-----------5----------|--------5-----------3----------|
G|--------5-----------7----------|--------5-----------4----------|
D|-------------------------------|-------------------------------|
A|-------------------------------|-------------------------------|
E|-------------------------------|-------------------------------|


Em Am
e|0------ 0------ ----0-- ----0--|------- 0------ 0---0-- ----0--|
B|1-------1-----------0-------1--|--------1-------1---1-------1--|
G|2-------2-----------0-------2--|--------2-------2---2-------2--|
D|2-------2-----------2-------2--|--------2-------2---2-------2--|
A|0-------0-----------2-------0--|--------0-------0---0-------0--|
E|--------------------0----------|-------------------------------|
Love me all the time, girl
e|------- 5------ ----3-- -------|------- 5------ ----3-- -------|
B|--------5-----------3----------|--------5-----------3----------|
G|--------5-----------4----------|--------5-----------4----------|
D|-------------------------------|-------------------------------|
A|-------------------------------|-------------------------------|
E|-------------------------------|-------------------------------|



Em Am
e|0------ 0------ 0---0-- ----0--|------- 0------ 0---0-- 0---0--|
B|1-------1-------0---0-------1--|--------1-------1---1---1---1--|
G|2-------2-------0---0-------2--|--------2-------2---2---2---2--|
D|2-------2-------2---2-------2--|--------2-------2---2---2---2--|
A|0-------0-------2---2-------0--|--------0-------0---0---0---0--|
E|----------------0---0----------|-------------------------------|
We'll go on and on
e|------- 5------ ----7-- -------|------- ------- ------- ----3--|
B|--------5-----------5----------|----------------------------5--|
G|--------5-----------7----------|----------------------------5--|
D|-------------------------------|----------------------------5--|
A|-------------------------------|-------------------------------|
E|-------------------------------|-------------------------------|


C
e|0------ 0------ 0---0-- ----0--|0------ 0------ 0---0-- ----0--|
B|1-------1-------1---1-------1--|1-------1-------1---1-------1--|
G|0-------0-------0---0-------0--|0-------0-------0---0-------0--|
D|2-------2-------2---2-------2--|2-------2-------2---2-------2--|
A|3-------3-------3---3-------3--|3-------3-------3---3-------3--|
E|-------------------------------|-------------------------------|
Someday when we're dreaming
e|------- ------- ------- -------|3------ ------- ------- -------|
B|-------------------------------|3------------------------------|
G|-------------------------------|3------------------------------|
D|-------------------------------|2------------------------------|
A|-------------------------------|3------------------------------|
E|-------------------------------|-------------------------------|


F Bb
e|1------ 1------ 1---1-- ----1--|1------ 1------ ----1-- ----1--|
B|1-------1-------1---1-------1--|3-------3-----------3-------3--|
G|2-------2-------2---2-------2--|3-------3-----------3-------3--|
D|3-------3-------3---3-------3--|3-------3-----------3-------3--|
A|3-------3-------3---3-------3--|1-------1-----------1-------1--|
E|1-------1-------1---1-------1--|-------------------------------|
Deep in love Not a lot to say
e|1------ ------- ------- -------|6------ ------- ------- -------|
B|1------------------------------|6------------------------------|
G|2------------------------------|7------------------------------|
D|3------------------------------|8------------------------------|
A|-------------------------------|-------------------------------|
E|-------------------------------|-------------------------------|


Am Em Am
e|0------ 0------ ----0-- -------|0------ 0------ ----0-- 0---0--|
B|1-------1-----------0----------|1-------1-----------1---1---1--|
G|2-------2-----------0----------|2-------2-----------2---2---2--|
D|2-------2-----------2----------|2-------2-----------2---2---2--|
A|0-------0-----------2----------|0-------0-----------0---0---0--|
E|--------------------0----------|-------------------------------|
Then we will re.....member
e|------- 5------ ----3-- -------|------- 5------ ----0-- -------|
B|--------5-----------3----------|--------5-----------5----------|
G|--------5-----------4----------|--------5-----------7----------|
D|-------------------------------|-------------------------------|
A|-------------------------------|-------------------------------|
E|-------------------------------|-------------------------------|


Em Am
e|0------ 0------ ----0-- ----0-0|0------ 0------ ----0-- ----0-0|
B|1-------1-----------0-------1-1|1-------1-----------1-------1-1|
G|2-------2-----------0-------2-2|2-------2-----------2-------2-2|
D|2-------2-----------2-------2-2|2-------2-----------2-------2-2|
A|0-------0-----------2-------0-0|0-------0-----------0-------0-0|
E|--------------------0----------|-------------------------------|
Things we said today
e|------- 5------ ----3-- -------|------- 5------ ------- -------|
B|--------5-----------3----------|--------5-------5--------------|
G|--------5-----------4----------|--------5-------5--------------|
D|-------------------------------|----------------7--------------|
A|-------------------------------|-------------------------------|
E|-------------------------------|-------------------------------| ******



e|0------ 0------ 0---0-- 0---0--|2------ 2------ 2---2-- 2---2--|
B|2-------2-------2---2---2---2--|3-------3-------3---3---3---3--|
G|2-------2-------2---2---2---2--|2-------2-------2---2---2---2--|
D|2-------2-------2---2---2---2--|0-------0-------0---0---0---0--|
A|0-------0-------0---0---0---0--|-------------------------------|
E|-------------------------------|-------------------------------|
Me, I'm just a lucky kind


B E
e|2------ 2------ 2---2-- 2---2--|0------ 0---0-- 0---0-- 0------|
B|4-------4-------4---4---4---4--|0-------0---0---0---0---0------|
G|4-------4-------4---4---4---4--|1-------1---1---1---1---1------|
D|4-------4-------4---4---4---4--|2-------2---2---2---2---2------|
A|2-------2-------2---2---2---2--|2-------2---2---2---2---2------|
E|-------------------------------|0-------0---0---0---0---0------|
Love to hear you say that love is luck
e|------- 7------ ----7-- -------|------- 0------ ----0-- -------|
B|--------7-----------7----------|--------5-----------5----------|
G|--------8-----------8----------|--------7-----------7----------|
D|--------9-----------9----------|--------6-----------6----------|
A|--------9-----------9----------|--------7-----------7----------|
E|--------7-----------7----------|--------0-----------0----------|


A D
e|0------ 0------ 0---0-- 0---0--|2------ 2------ 2---2-- 2---2--|
B|2-------2-------2---2---2---2--|3-------3-------3---3---3---3--|
G|2-------2-------2---2---2---2--|2-------2-------2---2---2---2--|
D|2-------2-------2---2---2---2--|0-------0-------0---0---0---0--|
A|0-------0-------0---0---0---0--|-------------------------------|
E|-------------------------------|-------------------------------|
And though we may be blind
e|------- 5------ ----5-- -------|2------ ------- ------- -------|
B|--------5-----------5----------|3------------------------------|
G|--------6-----------6----------|2------------------------------|
D|--------7-----------7----------|0------------------------------|
A|--------7-----------7----------|-------------------------------|
E|--------5-----------5----------|-------------------------------|



B Bb
e|2------ 2------ 2---2-- -------|1------ 1------ 1---1-- 1------|
B|4-------4-------4---4----------|3-------3-------3---3---3------|
G|4-------4-------4---4----------|3-------3-------3---3---3------|
D|4-------4-------4---4----------|3-------3-------3---3---3------|
A|2-------2-------2---2----------|1-------1-------1---1---1------|
E|-------------------------------|-------------------------------|
Love is here to stay and that's enough
e|------- 7------ ----7-- -------|------- 6------ ----6-- -------|
B|--------7-----------7----------|--------6-----------6----------|
G|--------8-----------8----------|--------7-----------7----------|
D|--------9-----------9----------|--------8-----------8----------|
A|--------9-----------9----------|--------8-----------8----------|
E|--------7-----------7----------|--------6-----------6----------|


Am Em Am
e|0------ 0------ ----0-- ----0--|------- 0------ ----0-- ----0--|
B|1-------1-----------0-------1--|--------1-----------1-------1--|
G|2-------2-----------0-------2--|--------2-----------2-------2--|
D|2-------2-----------2-------3--|--------2-----------2-------2--|
A|0-------0-----------2-------0--|--------0-----------0-------0--|
E|--------------------0----------|-------------------------------|
to make you mine, girl
e|------- 5------ ----3-- -------|------- 5------ ----0-- -------|
B|--------5-----------3----------|--------5-----------5----------|
G|--------5-----------4----------|--------5-----------7----------|
D|-------------------------------|-------------------------------|
A|-------------------------------|-------------------------------|
E|-------------------------------|-------------------------------|



Em Am
e|0------ 0------ ----0-- ----0--|------- 0------ ----0-- ----0--|
B|1-------1-----------0-------1--|--------1-----------1-------1--|
G|2-------2-----------0-------2--|--------2-----------2-------2--|
D|2-------2-----------2-------2--|--------2-----------2-------2--|
A|0-------0-----------2-------0--|--------0-----------0-------0--|
E|--------------------0----------|-------------------------------|
Be the only one
e|------- 5------ ----7-- -------|------- 5------ ----3-- -------|
B|--------5-----------5----------|--------5-----------3----------|
G|--------5-----------7----------|--------5-----------4----------|
D|-------------------------------|-------------------------------|
A|-------------------------------|-------------------------------|
E|-------------------------------|-------------------------------|


Em Am
e|0------ 0------ ----0-- ----0--|------- 0------ 0---0-- ----0--|
B|1-------1-----------0-------1--|--------1-------1---1-------1--|
G|2-------2-----------0-------2--|--------2-------2---2-------2--|
D|2-------2-----------2-------2--|--------2-------2---2-------2--|
A|0-------0-----------2-------0--|--------0-------0---0-------0--|
E|--------------------0----------|-------------------------------|
Love me all the time, girl
e|------- 5------ ----3-- -------|------- 5------ ----3-- -------|
B|--------5-----------3----------|--------5-----------3----------|
G|--------5-----------4----------|--------5-----------4----------|
D|-------------------------------|-------------------------------|
A|-------------------------------|-------------------------------|
E|-------------------------------|-------------------------------|



Em Am
e|0------ 0------ 0---0-- ----0--|------- 0------ 0---0-- 0---0--|
B|1-------1-------0---0-------1--|--------1-------1---1---1---1--|
G|2-------2-------0---0-------2--|--------2-------2---2---2---2--|
D|2-------2-------2---2-------2--|--------2-------2---2---2---2--|
A|0-------0-------2---2-------0--|--------0-------0---0---0---0--|
E|----------------0---0----------|-------------------------------|
We'll go on and on
e|------- 5------ ----7-- -------|------- ------- ------- ----3--|
B|--------5-----------5----------|----------------------------5--|
G|--------5-----------7----------|----------------------------5--|
D|-------------------------------|----------------------------5--|
A|-------------------------------|-------------------------------|
E|-------------------------------|-------------------------------|


C
e|0------ 0------ 0---0-- ----0--|0------ 0------ 0---0-- ----0--|
B|1-------1-------1---1-------1--|1-------1-------1---1-------1--|
G|0-------0-------0---0-------0--|0-------0-------0---0-------0--|
D|2-------2-------2---2-------2--|2-------2-------2---2-------2--|
A|3-------3-------3---3-------3--|3-------3-------3---3-------3--|
E|-------------------------------|-------------------------------|
Someday when we're dreaming
e|------- ------- ------- -------|3------ ------- ------- -------|
B|-------------------------------|3------------------------------|
G|-------------------------------|3------------------------------|
D|-------------------------------|2------------------------------|
A|-------------------------------|3------------------------------|
E|-------------------------------|-------------------------------|


F Bb
e|1------ 1------ 1---1-- ----1--|1------ 1------ ----1-- ----1--|
B|1-------1-------1---1-------1--|3-------3-----------3-------3--|
G|2-------2-------2---2-------2--|3-------3-----------3-------3--|
D|3-------3-------3---3-------3--|3-------3-----------3-------3--|
A|3-------3-------3---3-------3--|1-------1-----------1-------1--|
E|1-------1-------1---1-------1--|-------------------------------|
Deep in love Not a lot to say
e|1------ ------- ------- -------|6------ ------- ------- -------|
B|1------------------------------|6------------------------------|
G|2------------------------------|7------------------------------|
D|3------------------------------|8------------------------------|
A|-------------------------------|-------------------------------|
E|-------------------------------|-------------------------------|


Am Em Am
e|0------ 0------ ----0-- -------|0------ 0------ ----0-- 0---0--|
B|1-------1-----------0----------|1-------1-----------1---1---1--|
G|2-------2-----------0----------|2-------2-----------2---2---2--|
D|2-------2-----------2----------|2-------2-----------2---2---2--|
A|0-------0-----------2----------|0-------0-----------0---0---0--|
E|--------------------0----------|-------------------------------|
Then we will re.....member
e|------- 5------ ----3-- -------|------- 5------ ----0-- -------|
B|--------5-----------3----------|--------5-----------5----------|
G|--------5-----------4----------|--------5-----------7----------|
D|-------------------------------|-------------------------------|
A|-------------------------------|-------------------------------|
E|-------------------------------|-------------------------------|


Em Am
e|0------ 0------ ----0-- ----0-0|0------ 0------ ----0-- ----0-0|
B|1-------1-----------0-------1-1|1-------1-----------1-------1-1|
G|2-------2-----------0-------2-2|2-------2-----------2-------2-2|
D|2-------2-----------2-------2-2|2-------2-----------2-------2-2|
A|0-------0-----------2-------0-0|0-------0-----------0-------0-0|
E|--------------------0----------|-------------------------------|
Things we said today
e|------- 5------ ----3-- -------|------- 5------ ------- -------|
B|--------5-----------3----------|--------5-------5--------------|
G|--------5-----------4----------|--------5-------5--------------|
D|-------------------------------|----------------7--------------|
A|-------------------------------|-------------------------------|
E|-------------------------------|-------------------------------|



e|0------ 0------ ----0-- ----0-0|0------ 0------ ----0-- ----0-0|
B|1-------1-----------1-------1-1|1-------1-----------1-------1-1|
G|2-------2-----------2-------2-2|2-------2-----------2-------2-2|
D|2-------2-----------2-------2-2|2-------2-----------2-------2-2|
A|0-------0-----------0-------0-0|0-------0-----------0-------0-0|
E|-------------------------------|-------------------------------|

e|------- 5------ ------- -------|------- 5------ 3---5-- -------|
B|--------5-------5--------------|--------5-------3---5----------|
G|--------5-------5--------------|--------5-------4---5----------|
D|----------------7--------------|-------------------------------|
A|-------------------------------|-------------------------------|
E|-------------------------------|-------------------------------|



e|0------ 0------ ----0-- ----0-0|0------ 0------ ----0-- ----0-0|
B|1-------1-----------1-------1-1|1-------1-----------1-------1-1|
G|2-------2-----------2-------2-2|2-------2-----------2-------2-2|
D|2-------2-----------2-------2-2|2-------2-----------2-------2-2|
A|0-------0-----------0-------0-0|0-------0-----------0-------0-0|
E|-------------------------------|-------------------------------|

e|------- 5------ ----5-- -------|------- 5------ ----5-- -------|
B|--------5-----------5----------|--------5-----------5----------|
G|--------5-----------5----------|--------5-----------5----------|
D|-------------------------------|-------------------------------|
A|-------------------------------|-------------------------------|
E|-------------------------------|-------------------------------|
......................Fade.....


e|0------ 0------ ----0-- ----0-0|0------ 0------ ----0-- ----0-0|
B|1-------1-----------1-------1-1|1-------1-----------1-------1-1|
G|2-------2-----------2-------2-2|2-------2-----------2-------2-2|
D|2-------2-----------2-------2-2|2-------2-----------2-------2-2|
A|0-------0-----------0-------0-0|0-------0-----------0-------0-0|
E|-------------------------------|-------------------------------|

e|------- 5------ ----5-- -------|------- 5------ ----5-- -------|
B|--------5-----------5----------|--------5-----------5----------|
G|--------5-----------5----------|--------5-----------5----------|
D|-------------------------------|-------------------------------|
A|-------------------------------|-------------------------------|
E|-------------------------------|-------------------------------|
...............................






B Bend
R Release
/ slide up
\ slide down
H hammer-on
P pull-off
~ vibrato
+ harmonic
x Mute note
. - play note like a dot in standard notation
^ - ties two notes together
(.

pjvill

Submitted by pjvill at Thu 15 Dec, 2005 10:05 am

Author: ?
Composer: ?
Publisher: ?
Language: English

Reactions

CommonCrawl [Bot]

Follow Muzikum