The Beatles

The Beatles
The Fool On The Hill Ver 2 (Guitar tab)

-----------------------------------------------------------------
THE BEATLES - THE FOOL ON THE HILL (Lennon/McCartney) Released
on 27 December 1967 (2 EP Magical Mistery Tour)

-----------------------------------------------------------------

Tabbed by:PJVillanueva



D6
D6 Em7
Day after day, alone on a hill,
D6 Em7
The man with the foolish grin is keeping perfectly still.
Em A
But nobody wants to know him,
D6 Bm7
They can see that he's just a fool.
Em A
And he never gives an answer .....



Dm Dm+5 Dm
But the fool on the hill,
Dm+5
Sees the sun going down.
C
And the eyes in his head,
Dm Dm+5 Dm6 Dm7 D6
See the world spinning 'round.



D6 Em7
Well on his way, his head in a cloud,
D6 Em7
The man of a thousand voices, talking perfectly loud.
Em A A7
But nobody ever hears him,
D6 Bm7
Or the sound he appears to make.
Em A
And he never seems to notice .....



Dm Dm+5 Dm
But the fool on the hill,
Dm+5
Sees the sun going down.
C
And the eyes in his head,
Dm Dm+5 D6 Dm7 D6
See the world spinning 'round.



Flute solo D6 Em7 D6 Em7



Em A
And nobody seems to like him,
D6 Bm7
They can tell what he wants to do.
Em A
And he never shows his feelings,



Dm Dm+5 Dm
But the fool on the hill,
Dm+5
Sees the sun going down.
C
And the eyes in his head,

Dm Dm+5 D6 Dm7 D6
See the world spinning 'round.



D6 Em7
Oh........
D6 Em7
Round ....



Em A
He never listens to them
D Bm7 Em
He knows that they're the fool
A
They don't like him
Dm Dm+5 Dm
The fool on the hill
Dm+5
Sees the sun going down
C
And the eyes in his head
Dm Dm+5 Dm6 Dm7 D6
See the world spinning 'round



A D6 ......
Oh.....Round round.....Oh....







D6
e|2------ 2------ 2------ 2------|2---2-- 2---2-- 2---2-- 2---2--|
B|0-------0-------0-------0------|0---0---0---0---0---0---0---0--|
G|2-------2-------2-------2------|2---2---2---2---2---2---2---2--|
D|0------------------------------|0------------------------------|
A|-------------------------------|-------------------------------|
E|-------------------------------|-------------------------------|


Em7 D6
e|3---3-- 3---3-- 3---3-- 3---3--|2---2-- 2---2-- 2---2-- 2---2--|
B|5---5---5---5---5---5---5---5--|0---0---0---0---0---0---0---0--|
G|4---4---4---4---4---4---4---4--|2---2---2---2---2---2---2---2--|
D|0------------------------------|0------------------------------|
A|-------------------------------|-------------------------------|
E|-------------------------------|-------------------------------|


Em7 Em A A7
e|3---3-- 3---3-- 3---3-- 3---3--|0---0-- 0---0-- 0---0-- 0---0--|
B|5---5---5---5---5---5---5---5--|0---0---0---0---2---2---2---2--|
G|4---4---4---4---4---4---4---4--|0---0---0---0---2---2---0---0--|
D|0------------------------------|-------------------------------|
A|-------------------------------|----------------0--------------|
E|-------------------------------|0------------------------------|


D6 Bm7 Em A
e|2---2-- 2---2-- ------- -------|0---0-- 0---0-- 0---0-- 0---0--|
B|0---0---0---0---3---3---3---3--|0---0---0---0---2---2---2---2--|
G|2---2---2---2---2---2---2---2--|0---0---0---0---2---2---2---2--|
D|0---------------4---4---4---4--|-------------------------------|
A|----------------2--------------|----------------0--------------|
E|-------------------------------|0------------------------------|


Dm Dm+5 Dm Dm+5
e|1---1-- 1---1-- 1---1-- 1---1--|1---1-- 1---1-- 1---1-- 1---1--|
B|3---3---3---3---3---3---3---3--|3---3---3---3---3---3---3---3--|
G|2---2---3---3---2---2---2---2--|3---3---3---3---3---3---3---3--|
D|0-------0-------0-------0------|0-------0-------0-------0------|
A|-------------------------------|-------------------------------|
E|-------------------------------|-------------------------------|


C Dm Dm+ 5Dm6 Dm7
e|0------ ------- 0------ -------|1------ 1-----1 ------- 1-1--2-|
B|1-------1-------1-------1------|3-------3-----2---------2-2--0-|
G|0-------0-------0-------0------|2-------3--4--2-----2---2-2--2-|
D|--------2-------2-------2------|0-------0-------0--------------|
A|3-------3-------3-------3------|-------------------------------|
E|-------------------------------|-------------------------------|



D6
e|2---2-- 2---2-- 2-2---2 --2--2-|------- ------- ------- -------|
B|0---0---0---0---0-0---0---0--0-|-------------------------------|
G|2---2---2---2---2-2---2---2--2-|-------------------------------|
D|0---0---0---0---0---0---0---0--|-------------------------------|
A|-------------------------------|-------------------------------|
E|-------------------------------|-------------------------------|






Ending second guitar


e|------- ------- ------- -------|------- ------- ------- 0------|
B|--------------------0---3---3--|----------------0---3-------3--|
G|----------------2--------------|-------------------------------|
D|-------------------------------|-------------------------------|
A|-------------------------------|-------------------------------|
E|-------------------------------|-------------------------------|



e|------- ------- ------- -------|------- ------- ------- -------|
B|--------------------0---3---0--|-------------------------------|
G|----------------2--------------|-------------------------------|
D|-------------------------------|-------------------------------|
A|-------------------------------|-------------------------------|
E|-------------------------------|-------------------------------|








B Bend
R Release
/ slide up
\ slide down
H hammer-on
P pull-off
~ vibrato
+ harmonic
x Mute note
. - play note like a dot in standard notation
^ - ties two notes together
(. Pause

pjvill

Submitted by pjvill at Thu 15 Dec, 2005 10:03 am

Author: ?
Composer: ?
Publisher: ?
Language: English

Reactions

CommonCrawl [Bot]

Follow Muzikum