The Beatles

The Beatles
Tell Me What You See (Guitar tab)

-------------------------------------------------------------------
THE BEATLES - TELL ME WHAT YOU SEE - (Lennon/McCartney) From HELP
album. Released 6th August 1965.

-------------------------------------------------------------------

Tabbed by:PJVillanueva






If you let me take your heart I will prove to you,
We will never be apart if I'm part of you.
Open up your eyes now, tell me what you see.
It is no suprise now, what you see is me
.
Big and black the clouds may be, time will pass away.
If you put your trust in me I'll make bright your day.
Look into these eyes now, tell me what you see.
Don't you realise now, what you see is me.
Tell me what you see.

Listen to me one more time, how can I get through?
Can't you try to see that I'm trying to get to you?
Open up your eyes now, tell me what you see.
It is no suprise now, what you see is me.
Tell me what you see.

Listen to me one more time, how can I get through?
Can't you try to see that I'm trying to get to you?
Open up your eyes now, tell me what you see.
It is no suprise now, what you see is me.


G
e|------- ------- ------- -------|------- ------- ------- ---3---|
B|-------------------------------|----------------------------3--|
G|-------------------------------|-----------------------------0-|
D|-------------------------------|------------------------------0|
A|-------------------------------|-------------------------------2
E|-------------------------------|-------------------------------|



e|------- 3------ 3---3-- ---3---|------- 3------ 3---3-- ---3---|
B|--------3-------3---3-------3--|--------3-------3---3-------3--|
G|--------0-------0---0--------0-|--------0-------0---0--------0-|
D|--------0-------0---0---------0|--------0-------0---0---------0|
A|--------2-------2---2----------2--------2-------2---2----------2
E|3-------3-------3---3----------|3-------3-------3---3----------|


C D G
e|------- 3------ 3---3-- ----2--|----2-- ----3-- ------- 3---3--|
B|--------3-------1---1-------3--|----3-------3-----------3---3--|
G|--------0-------0---0-------2--|----2-------0-----------0---0--|
D|--------0-------2---2-------0--|----0-------0-----------0---0--|
A|--------2-------3---3----------|------------2-----------2---2--|
E|3-------3----------------------|------------3-----------3---3--|
If you let me take your heart

C G
e|----3-- ----3-- ----3-- ----3--|------- 3------ ----3-- ---3---|
B|----3-------1-------1-------3--|--------3-----------3-------3--|
G|----0-------0-------0-------0--|--------0-----------0--------0-|
D|----0-------2-------2-------0--|--------0-----------0---------0|
A|----2-------3-------3-------2--|--------2-----------2----------2
E|----3-----------------------3--|--------3-----------3----------|
I will prove to you

C D G
e|------- 3------ 0---0-- ----2--|----2-- ----3-- ------- 3------|
B|--------3-------1---1-------3--|----3-------3-----------3------|
G|--------0-------0---0-------2--|----2-------0-----------0------|
D|--------0-------2---2-------0--|----0-------0-----------0------|
A|--------2-------3---3----------|------------2-----------2------|
E|3-------3----------------------|------------3-----------3------|
We will never be apart

C D G C
e|3---3-- ----2-- ------- ----3--|------- 3------ ----3-- ----3--|
B|1---1-------3---------------3--|--------3-----------3-------1--|
G|0---0-------2---------------0--|--------0-----------0-------0--|
D|2---2-------0---------------0--|--------0-----------0-------2--|
A|3---3-----------------------2--|--------2-----------2-------3--|
E|----------------------------3--|--------3-----------3----------|
If I'm part of you

G
e|----3-- ----3-- ----3-- 3---3--|------- 3------ 3------ 3---3--|
B|----1-------1-------1---1---3--|--------3-------3-------3---3--|
G|----0-------0-------0---0---0--|--------0-------0-------0---0--|
D|----2-------2-------2---2---0--|--------0-------0-------0---0--|
A|----3-------3-------3---3---2--|--------2-------2-------2---2--|
E|----------------------------3--|--------3-------3-------3---3--|
Open up your eyes now

C G C
e|3------ 3------ ----3-- ----3--|------- 3------ 3---3-- ----3--|
B|1-------1-----------1-------3--|--------3-------3---3-------1--|
G|0-------0-----------0-------0--|--------0-------0---0-------0--|
D|2-------2-----------2-------0--|--------0-------0---0-------2--|
A|3-------3-----------3-------2--|--------2-------2---2-------3--|
E|----------------------------3--|--------3-------3---3----------|
Tell me what you see

G C
e|------- 3------ ----3-- ----3--|------- 3------ ----3-- ----3--|
B|--------1-----------1-------3--|--------3-----------3-------1--|
G|--------0-----------0-------0--|--------0-----------0-------0--|
D|--------2-----------2-------0--|--------0-----------0-------2--|
A|--------3-----------3-------2--|--------2-----------2-------3--|
E|----------------------------3--|--------3-----------3----------|
It is no surprise now

D G
e|----3-- ----2-- ----2-- ----3--|------- 3------ 3---3-- ---3---|
B|----1-------3-------3-------3--|--------3-------3---3-------3--|
G|----0-------2-------2-------0--|--------0-------0---0--------0-|
D|----2-------0-------0-------0--|--------0-------0---0---------0|
A|----3-----------------------2--|--------2-------2---2----------2
E|----------------------------3--|--------3-------3---3----------|
What you see is me

C D G
e|------- 3------ 3---3-- ----2--|----2-- ----3-- ------- 3------|
B|--------3-------1---1-------3--|----3-------3-----------3------|
G|--------0-------0---0-------2--|----2-------0-----------0------|
D|--------0-------2---2-------0--|----0-------0-----------0------|
A|--------2-------3---3----------|------------2-----------2------|
E|3-------3----------------------|------------3-----------3------|
Big and black the clouds may be

C G
e|----3-- ----3-- ----3-- ----3--|------- 3------ ----3-- ----3--|
B|----3-------1-------1-------3--|--------3-----------3-------3--|
G|----0-------0-------0-------0--|--------0-----------0-------0--|
D|----0-------2-------2-------0--|--------0-----------0-------0--|
A|----2-------3-------3-------2--|--------2-----------2-------2--|
E|----3-----------------------3--|--------3-----------3-------3--|
Time will pass away

C D G C
e|------- 3------ ----0-- ----2--|------- ----3-- ----3-- ----3--|
B|--------3-----------1-------3--|------------3-------3-------1--|
G|--------0-----------0-------2--|------------0-------0-------0--|
D|--------0-----------2-------0--|------------0-------0-------2--|
A|--------2-----------3----------|------------2-------2-------3--|
E|--------3----------------------|------------3-------3----------|
If you put your trust in me

D G C
e|------- 3------ ----2-- ----3--|------- 3------ ----3-- ----3--|
B|--------1-----------3-------3--|--------3-----------3-------1--|
G|--------0-----------2-------0--|--------0-----------0-------0--|
D|--------2-----------0-------0--|--------0-----------0-------2--|
A|--------3-------------------2--|--------2-----------2-------3--|
E|----------------------------3--|--------3-----------3----------|
I'll make bright your day

G C
e|------- 3------ ----3-- 3---3--|------- 3------ 3---3-- ----3--|
B|--------1-----------1---1---3--|--------3-------3---3-------1--|
G|--------0-----------0---0---0--|--------0-------0---0-------0--|
D|--------2-----------2---2---0--|--------0-------0---0-------2--|
A|--------3-----------3---3---2--|--------2-------2---2-------3--|
E|----------------------------3--|--------3-------3---3----------|
Look into this eyes now

C G C
e|------- 3------ ----3-- ----3--|------- 3------ ----3-- ----3--|
B|--------1-----------1-------3--|--------3-----------3-------1--|
G|--------0-----------0-------0--|--------0-----------0-------0--|
D|--------2-----------2-------0--|--------0-----------0-------2--|
A|--------3-----------3-------2--|--------2-----------2-------3--|
E|----------------------------3--|--------3-----------3----------|
Tell me what you see

G C
e|------- 3------ ----3-- ----3--|------- 3------ ----3-- ----3--|
B|--------1-----------1-------3--|--------3-----------3-------1--|
G|--------0-----------0-------0--|--------0-----------0-------0--|
D|--------2-----------2-------0--|--------0-----------0-------2--|
A|--------3-----------3-------2--|--------2-----------2-------3--|
E|----------------------------3--|--------3-----------3----------|
It is no surprise now

D G
e|------- 3------ ----2-- ----3--|------- 3------ ----3-- ----3--|
B|--------1-----------3-------3--|--------3-----------3-------3--|
G|--------0-----------2-------0--|--------0-----------0-------0--|
D|--------2-----------0-------0--|--------0-----------0-------0--|
A|--------3-------------------2--|--------2-----------2-------2--|
E|----------------------------3--|--------3-----------3-------3--|
What you see is me



e|------- 3------ ----3-- ----3--|------- 3------ ----3-- ----3--|
B|--------3-----------3-------3--|--------3-----------3-------3--|
G|--------0-----------0-------0--|--------0-----------0-------0--|
D|--------0-----------0-------0--|--------0-----------0-------0--|
A|--------2-----------2-------2--|--------2-----------2-------2--|
E|--------3-----------3-------3--|--------3-----------3-------3--|


C
e|3------ ------- ------- -------|------- ------- ------- -------|
B|1------------------------------|-------------------------------|
G|0------------------------------|-------------------------------|
D|2------------------------------|-------------------------------|
A|3------------------------------|-------------------------------|
E|-------------------------------|-------------------------------|

e|------- ------- ------- 0---1--|3----1- --0---- 1------ 0------|
B|------------------------1---3--|5----3----1-----3-------1------|
G|--------------------0----------|-------------------------------|
D|-------------------------------|-------------------------------|
A|-------------------------------|-------------------------------|
E|-------------------------------|-------------------------------|



G D
e|0------ ------- ------- -------|------- ------- ------- -------|
B|1---3---------------5-------3--|3---1---------------3-------1--|
G|----4---------------5-------4--|4---2---------------4-------2--|
D|-------------------------------|-------------------------------|
A|-------------------------------|-------------------------------|
E|-------------------------------|-------------------------------|



G
e|3------ ------- ----3-- ---3---|------- 3------ ----3-- ----3--|
B|3-------------------3-------3--|--------3-----------3-------3--|
G|0-------------------0--------0-|--------0-----------0-------0--|
D|0-------------------0---------0|--------0-----------0-------0--|
A|2-------------------2----------2--------2-----------2-------2--|
E|3-------------------3----------|3-------3-----------3-------3--|

e|------- ------- ------- -------|7------ 7------ ------- -------|
B|1-----------0---0--------------|8-------8----------------------|
G|2-----------0---0------------8/9-------------------------------|
D|-------------------------------|-------------------------------|
A|-------------------------------|-------------------------------|
E|-------------------------------|-------------------------------|



C D G
e|------- 3------ ----0-- ----2--|------- ----3-- ------- 3---3--|
B|--------3-----------1-------3--|------------3-----------3---3--|
G|--------0-----------0-------2--|------------0-----------0---0--|
D|--------0-----------2-------0--|------------0-----------0---0--|
A|--------2-----------3----------|------------2-----------2---2--|
E|3-------3----------------------|------------3-----------3---3--|
Listen to me one more time

C G
e|----3-- ----3-- ----3-- ----3--|------- 3---3-- ----3-- ----3--|
B|----3-------1-------1-------3--|--------3---3-------3-------3--|
G|----0-------0-------0-------0--|--------0---0-------0-------0--|
D|----0-------2-------2-------0--|--------0---0-------0-------0--|
A|----2-------3-------3-------2--|--------2---2-------2-------2--|
E|----3-----------------------3--|--------3---3-------3-------3--|
How can I get through

D G C
e|------- 3------ ----3-- ----2--|----2-- ----3-- ------- 3---3--|
B|--------3-----------3-------3--|----3-------3-----------3---1--|
G|--------0-----------0-------2--|----2-------0-----------0---0--|
D|--------0-----------0-------0--|----0-------0-----------0---2--|
A|--------2-----------2----------|------------2-----------2---3--|
E|--------3-----------3----------|------------3-----------3------|
Can't you try to see that I'm

D G C
e|------- ----2-- ----2-- ----3--|------- 3------ ----3-- 3---3--|
B|------------3-------3-------3--|--------3-----------3---3---1--|
G|------------2-------2-------0--|--------0-----------0---0---0--|
D|------------0-------0-------0--|--------0-----------0---0---2--|
A|----------------------------2--|--------2-----------2---2---3--|
E|----------------------------3--|--------3-----------3---3------|
Trying to get to you

G C
e|------- 3------ 3---3-- ----3--|------- 3------ ----3-- 3---3--|
B|--------1-------1---1-------3--|--------3-----------3---3---1--|
G|--------0-------0---0-------0--|--------0-----------0---0---0--|
D|--------2-------2---2-------0--|--------0-----------0---0---2--|
A|--------3-------3---3-------2--|--------2-----------2---2---3--|
E|----------------------------3--|--------3-----------3---3------|
Open up your eyes now

G C
e|------- 3------ --3-3-- ----3--|----3-- 3------ ----3-- ----3--|
B|--------1---------1-1-------3--|----3---3-----------3-------1--|
G|--------0---------0-0-------0--|----0---0-----------0-------0--|
D|--------2---------2-2-------0--|----0---0-----------0-------2--|
A|--------3---------3-3-------2--|----2---2-----------2-------3--|
E|----------------------------3--|----3---3-----------3----------|
Tell me what you see

G C
e|------- 3------ ----3-- ----3--|------- 3------ ----3-- 3---3--|
B|--------1-----------1-------3--|--------3-----------3---3---1--|
G|--------0-----------0-------0--|--------0-----------0---0---0--|
D|--------2-----------2-------0--|--------0-----------0---0---2--|
A|--------3-----------3-------2--|--------2-----------2---2---3--|
E|----------------------------3--|--------3-----------3---3------|
It is no surprise now

D G
e|------- 3------ 2---2-- ----3--|3------ 3------ ----3-- ---3---|
B|--------1-------3---3-------3--|3-------3-----------3-------3--|
G|--------0-------2---2-------0--|0-------0-----------0--------0-|
D|--------2-------0---0-------0--|0-------0-----------0---------0|
A|--------3-------------------2--|2-------2-----------2----------2
E|----------------------------3--|3-------3-----------3----------|
What you see is me


e|------- 3------ ----3-- ---3---|------- 3------ ----3-- ----3--|
B|--------3-----------3-------3--|--------3-----------3-------3--|
G|--------0-----------0--------0-|--------0-----------0-------0--|
D|--------0-----------0---------0|--------0-----------0-------0--|
A|--------2-----------2----------2--------2-----------2-------2--|
E|3-------3-----------3----------|3-------3-----------3-------3--|



C
e|3------ ------- ------- -------|------- ------- ------- -------|
B|1------------------------------|-------------------------------|
G|0------------------------------|-------------------------------|
D|2------------------------------|-------------------------------|
A|3------------------------------|-------------------------------|
E|-------------------------------|-------------------------------|

e|------- ------- ------- 0---1--|3----1- --0---- 1------ 0------|
B|------------------------1---3--|5----3----1-----3-------1------|
G|--------------------0----------|-------------------------------|
D|-------------------------------|-------------------------------|
A|-------------------------------|-------------------------------|
E|-------------------------------|-------------------------------|



G D
e|0------ ------- ------- -------|------- ------- ------- -------|
B|1---3---------------5-------3--|3---1---------------3----------|
G|----4---------------5-------4--|4---2---------------4----------|
D|-------------------------------|-------------------------------|
A|-------------------------------|-------------------------------|
E|-------------------------------|-------------------------------|



G
e|------- ------- ------- -------|3------ ----3-- ----3-- ----3--|
B|-------------------------------|3-----------3-------3-------3--|
G|-------------------------------|0-----------0-------0-------0--|
D|-------------------------------|0-----------0-------0-------0--|
A|-------------------------------|2-----------2-------2-------2--|
E|-------------------------------|3-----------3-------3-------3--|

e|------- ------- ------- -------|7------ 7------ ------- -------|
B|1---0-------0------------------|8-------8----------------------|
G|2---0-------0----------------8/9-------------------------------|
D|-------------------------------|-------------------------------|
A|-------------------------------|-------------------------------|
E|-------------------------------|-------------------------------|



C D G
e|------- 3---3-- ----0-- ----2--|----2-- ----3-- ------- 3------|
B|--------3---3-------1-------3--|----3-------3-----------3------|
G|--------0---0-------0-------2--|----2-------0-----------0------|
D|--------0---0-------2-------0--|----0-------0-----------0------|
A|--------2---2-------3----------|------------2-----------2------|
E|--------3---3------------------|------------3-----------3------|
Listen to me one more time

C G
e|----3-- ----3-- ----3-- ----3--|------- 3------ ----3-- ----3--|
B|----3-------1-------1-------3--|--------3-----------3-------3--|
G|----0-------0-------0-------0--|--------0-----------0-------0--|
D|----0-------2-------2-------0--|--------0-----------0-------0--|
A|----2-------3-------3-------2--|--------2-----------2-------2--|
E|----3-----------------------3--|--------3-----------3-------3--|
How can I get through

C D G
e|------- 3------ ----3-- ----2--|----2-- ----3-- ------- 3------|
B|--------3-----------1-------3--|----3-------3-----------3------|
G|--------0-----------0-------2--|----2-------0-----------0------|
D|--------0-----------2-------0--|----0-------0-----------0------|
A|--------2-----------3----------|------------2-----------2------|
E|--------3----------------------|------------3-----------3------|
Can't you try to see that I'm

C D G C
e|----3-- ----2-- ----2-- ----3--|------- 3------ ----3-- ----3--|
B|----1-------3-------3-------3--|--------3-----------3-------1--|
G|----0-------2-------2-------0--|--------0-----------0-------0--|
D|----2-------0-------0-------0--|--------0-----------0-------2--|
A|----3-----------------------2--|--------2-----------2-------3--|
E|----------------------------3--|--------3-----------3----------|
Trying to get to you

G C
e|----3-- ----3-- ----3-- ----3--|------- ----3-- ------- ----3--|
B|----1-------1-------1-------3--|------------3---------------1--|
G|----0-------0-------0-------0--|------------0---------------0--|
D|----2-------2-------2-------0--|------------0---------------2--|
A|----3-------3-------3-------2--|------------2---------------3--|
E|----------------------------3--|------------3------------------|
Open up your eyes now

G C
e|------- 3------ ----3-- ----3--|------- 3------ ----3-- ----3--|
B|--------1-----------1-------3--|--------3-----------3-------1--|
G|--------0-----------0-------0--|--------0-----------0-------0--|
D|--------2-----------2-------0--|--------0-----------0-------2--|
A|--------3-----------3-------2--|--------2-----------2-------3--|
E|----------------------------3--|--------3-----------3----------|
Tell me what you see

G C
e|------- 3------ ----3-- ----3--|------- 3------ ----3-- ----3--|
B|--------1-----------1-------3--|--------3-----------3-------1--|
G|--------0-----------0-------0--|--------0-----------0-------0--|
D|--------2-----------2-------0--|--------0-----------0-------2--|
A|--------3-----------3-------2--|--------2-----------2-------3--|
E|----------------------------3--|--------3-----------3----------|
It is no surprise now

D G
e|------- 3------ 2---2-- ----3--|------- 3------ ----3-- -------|
B|--------1-------3---3-------3--|--------3-----------3----------|
G|--------0-------2---2-------0--|--------0-----------0----------|
D|--------2-------0---0-------0--|--------0-----------0----------|
A|--------3-------------------2--|--------2-----------2----------|
E|----------------------------3--|--------3-----------3----------|
What you see is me



e|3------ ----3-- 3------ ----3--|3------ ----3-- 3------ ----3--|
B|3-----------3---3-----------3--|3-----------3---3-----------3--|
G|0-----------0---0-----------0--|0-----------0---0-----------0--|
D|0-----------0---0-----------0--|0-----------0---0-----------0--|
A|2-----------2---2-----------2--|2-----------2---2-----------2--|
E|3-----------3---3-----------3--|3-----------3---3-----------3--|
Mmmmmmmmmmmmmmmmmmmmmmmmmmmmmmmmmmmmmmmmmmmmmmmmmmmmmmmmmmmmmmm

C G
e|3------ ------- ------- -------|------- ------- ------- -------|
B|1------------------------------|-------------------------------|
G|0------------------------------|-------------------------------|
D|2------------------------------|-------------------------------|
A|3------------------------------|-------------------------------|
E|-------------------------------|-------------------------------|
mmmmmmmmmmmmmmmmmmmmmmm
e|------- ------- ------- 0---1--|3----1- --0---- 1------ 0------|
B|------------------------1---3--|5----3----1-----3-------1------|
G|--------------------0----------|-------------------------------|
D|-------------------------------|------------------------------0|
A|-------------------------------|-------------------------------|
E|-------------------------------|------------------------------3|


(.

e|------- ------- ------- -------|------- ------- ------- -------|
B|3------------------------------|-------------------------------|
G|4------------------------------|-------------------------------|
D|-------------------------------|-------------------------------|
A|-------------------------------|-------------------------------|
E|-------------------------------|-------------------------------|








B Bend
R Release
/ slide up
\ slide down
H hammer-on
P pull-off
~ vibrato
+ harmonic
x Mute note
. - play note like a dot in standard notation
^ - ties two notes together
(. Pause

pjvill

Submitted by pjvill at Thu 15 Dec, 2005 10:01 am

Author: ?
Composer: ?
Publisher: ?
Language: English

Reactions

CommonCrawl [Bot]

Follow Muzikum