The Beatles

The Beatles
Slow Down Ver 2 (Guitar tab)

------------------------------------------------------------------
THE BEATLES - SLOW DOWN (Williams) Released as an EP, along with
LONG TALL SALLY, I CALL YOUR NAME and MATCHBOX on
16th June 1964

------------------------------------------------------------------

Tabbed by:PJVillanueva






Well, come on pretty baby won't you walk with me
Come on pretty baby won't you talk with me
Come on pretty baby give me one more chance
Try and save our romance
Slow down

Baby, now you're moving way too fast
You gotta gimme little lovin'
gimme little lovin'
Ow, if you want our love to last

Well I used to walk you home baby after school
Carry your books home, too
But now you got a boyfriend down the street
Baby what're you trying to do a do
You better slow down

Baby, now you're moving way too fast
You gotta gimme little loving
gimme little loving
Brrr, if you want our love to last

Well you know that I love you, tell the world I do
Come on pretty baby, why can't you be true
I need you badly, baby, oh so bad
The best little woman I ever had
Slow down

Baby, now you're moving way too fast
You gotta gimme little loving
gimme little loving
Ow, if you want our love to last






e|------- ------- ------- -------|------- ------- ------- -------|
B|-------------------------------|--------------------5---6---7--|
G|-------------------------------|--------------------5---7---8--|
D|-------------------------------|-------------------------------|


C7
G|-------------------------------|-------------------------------|
D|-------------------------------|--------5---7---7---5---7---5--|
A|3---3---3---3---3---3---3---3-5/7---7--------------------------|
E|-------------------------------|-------------------------------|

e|6------ ----6-- ------- -------|6------ ------- ------- -------|
B|5-----------5------------------|5------------------------------|
G|3-----------3------------------|3------------------------------|
D|5-----------5------------------|5------------------------------|
A|3-----------3------------------|3------------------------------|
E|-------------------------------|-------------------------------|

e|------- ------- ------- -------|------- 8---10- ------- -------|
B|8-----------------------------8/10--------------------------7--|
G|9------------------------------|----------------------------8--|
D|-------------------------------|-------------------------------|






G|-------------------------------|-------------------------------|
D|-------------------------------|--------5---7---7---5---7---5--|
A|3---3---3---3---3---3---3---3-5/7---7--------------------------|
E|-------------------------------|-------------------------------|

e|------- 6------ ------- -------|-6----- ------- ------- -------|
B|--------5----------------------|-5-----------------------------|
G|--------3----------------------|-3-----------------------------|
D|--------5----------------------|-5-----------------------------|
A|--------3----------------------|-3-----------------------------|
E|-------------------------------|-------------------------------|

e|------- ------- ------- -------|------- ------- ------- -------|
B|8------------------------------|--------8---10------8---10--7--|
G|9-----------------------------7/9---------------------------8--|
D|-------------------------------|-------------------------------|




G|-------------------------------|-------------------------------|
D|-------------------------------|--------5---7---7---5---7---5--|
A|3---3---3---3---3---3---3---3-5/7---7--------------------------|
E|-------------------------------|-------------------------------|

e|------- ----6-- ------- -------|------- ------- ------- -------|
B|------------5------------------|-------------------------------|
G|------------3------------------|-------------------------------|
D|------------5------------------|-------------------------------|
A|------------3------------------|-------------------------------|
E|-------------------------------|-------------------------------|

e|------- ------- ------- -------|------- ------- ------- -------|
B|8------------------------------|--------8---10------8---10--7--|
G|9-----------------------------7/9---------------------------8--|
D|-------------------------------|-------------------------------|





G|-------------------------------|-------------------------------|
D|-------------------------------|--------5---7---7---5---7---5--|
A|3---3---3---3---3---3---3---3-5/7---7--------------------------|
E|-------------------------------|-------------------------------|

e|------- 6------ ------- -------|-6----- ------- ------- -------|
B|--------5----------------------|-5-----------------------------|
G|--------3----------------------|-3-----------------------------|
D|--------5----------------------|-5-----------------------------|
A|--------3----------------------|-3-----------------------------|
E|-------------------------------|-------------------------------|

e|------- ------- ------- -------|------- ------- ------- ----7--|
B|8------------------------------|--------8---10--------------9--|
G|9-----------------------------7/9------------------------------|
D|-------------------------------|-------------------------------|



F7
D|-------------------------------|-------------------------------|
A|-------------------------------|--------3---5---5---3---5---3--|
E|1---1---1---1---1---1---1---1-3/5---5--------------------------|

e|------- 1------ ------- -------|1------ ------- ------- -------|
B|--------4----------------------|4------------------------------|
G|--------2----------------------|2------------------------------|
D|--------1----------------------|1------------------------------|
A|--------3----------------------|3------------------------------|
E|--------1----------------------|1------------------------------|

e|-8----- ------- ------- -------|------- 8---10- ----8-- 10--7--|
B|10---------------------------8/10---------------------------8--|
G|-------------------------------|-------------------------------|






D|-------------------------------|-------------------------------|
A|-------------------------------|--------3---5---5---3---5---3--|
E|1---1---1---1---1---1---1---1-3/5---5--------------------------|

e|------- 1------ ------- -------|1------ ------- ------- -------|
B|--------4----------------------|4------------------------------|
G|--------2----------------------|2------------------------------|
D|--------1----------------------|1------------------------------|
A|--------3----------------------|3------------------------------|
E|--------1----------------------|1------------------------------|

e|-8----- ------- ------- -------|------- 8---10- ------- -------|
B|10---------------------------8/10---------------------------7--|
G|-------------------------------|----------------------------8--|




C7
G|-------------------------------|-------------------------------|
D|-------------------------------|--------5---7---7---5---7---5--|
A|3---3---3---3---3---3---3---3-5/7---7--------------------------|
E|-------------------------------|-------------------------------|

e|------- 6------ ------- -------|6------ ------- ------- -------|
B|--------5----------------------|5------------------------------|
G|--------3----------------------|3------------------------------|
D|--------5----------------------|5------------------------------|
A|--------3----------------------|3------------------------------|
E|-------------------------------|-------------------------------|

e|------- ------- ------- -------|------- ------- ------- ----7--|
B|8------------------------------|--------8---10------8---10--9--|
G|9-----------------------------7/9------------------------------|
D|-------------------------------|-------------------------------|






G|-------------------------------|-------------------------------|
D|-------------------------------|--------5---7---7---5---7---5--|
A|3---3---3---3---3---3---3---3-5/7---7--------------------------|
E|-------------------------------|-------------------------------|

e|------- 6------ ----6-- -------|6------ 6---6-- ----6-- -------|
B|--------5-----------5----------|5-------5---5-------5----------|
G|--------3-----------3----------|3-------3---3-------3----------|
D|--------5-----------5----------|5-------5---5-------5----------|
A|--------3-----------3----------|3-------3---3-------3----------|
E|-------------------------------|-------------------------------|

e|------- ------- ------- -------|------- ------- ------- ----9--|
B|8------------------------------|--------8---10------8---10-11--|
G|9-----------------------------7/9------------------------------|
D|-------------------------------|-------------------------------|





G7
D|-------------------------------|-------------------------------|
A|-------------------------------|--------5---7---7---5---7------|
E|3---3---3---3---3---3---3---3-5/7---7-----------------------5--|

e|------- ------- ------- -------|------- ------- ------- -------|
B|-------------------------------|-------------------------------|
G|-------------------------------|-------------------------------|
D|5-------5---5---5---5---5---5--|5-----------5-----------5------|
A|5-------5---5---5---5---5---5--|5-----------5-----------5------|
E|3-------3---3---3---3---3---3--|3-----------3-----------3------|

e|10----- ------- ------- -------|------- 10--12- ------- ----7--|
B|12---------------------------10/12--------------------------9--|
G|-------------------------------|-------------------------------|




F7
D|-------------------------------|-------------------------------|
A|-------------------------------|--------3---5---5---3---5---3--|
E|1---1---1---1---1---1---1---1-3/5---5--------------------------|

e|------- ------- ------- -------|------- ------- ------- -------|
B|-------------------------------|-------------------------------|
G|-------------------------------|-------------------------------|
D|3-------3-----------3-------3--|3-----------3-------3----------|
A|3-------3-----------3-------3--|3-----------3-------3----------|
E|1-------1-----------1-------1--|1-----------1-------1----------|

e|-8----- ------- ------- -------|------- 8------ ------- ----7--|
B|10---------------------------8/10---------8/10--------------8--|
G|-------------------------------|-------------------------------|




C7
G|-------------------------------|-------------------------------|
D|-------------------------------|--------5---7---7---5---7---5--|
A|3---3---3---3---3---3---3---3-5/7---7--------------------------|
E|-------------------------------|-------------------------------|

e|------- 0------ ----0-- -------|------- ----0-- ----0-- 0------|
B|--------1-----------1----------|------------1-------1---1------|
G|--------3-----------3----------|------------3-------3---3------|
D|--------2-----------5----------|------------5-------5---5------|
A|--------3-----------3----------|------------3-------3---3------|
E|-------------------------------|-------------------------------|

e|------- ------- ------- -------|------- ------- ------- ----7--|
B|8------------------------------|--------8---10------8---10--9--|
G|9-----------------------------7/9------------------------------|
D|-------------------------------|-------------------------------|






G|-------------------------------|-------------------------------|
D|-------------------------------|--------5---7---7---5---7---5--|
A|3---3---3---3---3---3---3---3-5/7---7--------------------------|
E|-------------------------------|-------------------------------|

e|------- 0------ ----0-- -------|------- 0---0-- ----0-- -------|
B|--------1-----------1----------|--------1---1-------1----------|
G|--------3-----------3----------|--------3---3-------3----------|
D|--------2-----------5----------|--------5---5-------5----------|
A|--------3-----------3----------|--------3---3-------3----------|
E|-------------------------------|-------------------------------|
Well, come
e|------- ------- ------- -------|------- ------- ------- ----7--|
B|8------------------------------|--------8---10--------------9--|
G|9-----------------------------7/9------------------------------|
D|-------------------------------|-------------------------------|







G|-------------------------------|-------------------------------|
D|-------------------------------|--------5---7---7---5---7---5--|
A|3---3---3---3---3---3---3---3-5/7---7--------------------------|
E|-------------------------------|-------------------------------|

e|------- 0------ ------- 0------|------- 0------ ----0-- -------|
B|--------1---------------1------|--------1-----------1----------|
G|--------3---------------3------|--------3-----------3----------|
D|--------2---------------2------|--------2-----------2----------|
A|--------3---------------3------|--------3-----------3----------|
E|-------------------------------|-------------------------------|
on, pretty baby won't you walk with me Come
e|------- ------- ------- -------|------- ------- ------- ----7--|
B|8------------------------------|--------8---10------8---10--9--|
G|9-----------------------------7/9------------------------------|
D|-------------------------------|-------------------------------|






G|-------------------------------|-------------------------------|
D|-------------------------------|--------5---7---7---5---7---5--|
A|3---3---3---3---3---3---3---3-5/7---7--------------------------|
E|-------------------------------|-------------------------------|

e|------- 0------ ----0-- -------|------- 0------ ----0-- -------|
B|--------1-----------1----------|--------1-----------1----------|
G|--------3-----------3----------|--------3-----------3----------|
D|--------2-----------2----------|--------2-----------2----------|
A|--------3-----------3----------|--------3-----------3----------|
E|-------------------------------|-------------------------------|
on, pretty baby won't you talk with me Come
e|------- ------- ------- -------|------- ------- ------- ----7--|
B|8------------------------------|--------8---10------8---10--9--|
G|9-----------------------------7/9------------------------------|
D|-------------------------------|-------------------------------|





G|-------------------------------|-------------------------------|
D|-------------------------------|--------5---7---7---5---7---5--|
A|3---3---3---3---3---3---3---3-5/7---7--------------------------|
E|-------------------------------|-------------------------------|

e|------- 0------ ----0-- ----0--|------- 0---0-- ----0-- 0------|
B|--------1-----------1-------1--|--------1---1-------1---1------|
G|--------3-----------3-------3--|--------3---3-------3---3------|
D|--------2-----------2-------2--|--------2---2-------2---2------|
A|--------3-----------3-------3--|--------3---3-------3---3------|
E|-------------------------------|-------------------------------|
on, pretty baby give me one more chance
e|------- ------- ------- -------|------- ------- ------- -------|
B|8------------------------------|--------8---10------8---10--8--|
G|9-----------------------------7/9------------------------------|
D|-------------------------------|-------------------------------|






e|0------ ------- ------- -------|------- ------- ------- -------|
B|1------------------------------|-------------------------------|
G|3------------------------------|-------------------------------|
D|2------------------------------|-------------------------------|
A|3------------------------------|-------------------------------|
E|-------------------------------|-------------------------------|
Try and save our romance, slow down
e|8------ ------- ------- -------|------- ------- ------- -------|
B|8------------------------------|-------------------------------|
G|9------------------------------|-------------------------------|
D|-------------------------------|-------------------------------|



F7
D|-------------------------------|-------------------------------|
A|-------------------------------|--------3---5---5---3---5---3--|
E|1---1---1---1---1---1---1---1-3/5---5--------------------------|

e|------- 1------ ----1-- ----1--|1------ ----1-- ----1-- 1------|
B|--------4-----------4-------4--|4-----------4-------4---4------|
G|--------2-----------2-------2--|2-----------2-------2---2------|
D|--------1-----------1-------1--|1-----------1-------1---1------|
A|--------3-----------3-------3--|3-----------3-------3---3------|
E|--------1-----------1-------1--|1-----------1-------1---1------|

e|------- -8----- ------- -------|------- 8---10- ----8-- 10--7--|
B|--------10-------------------8/10---------------------------9--|
G|-------------------------------|-------------------------------|






D|-------------------------------|-------------------------------|
A|-------------------------------|--------3---5---5---3---5---3--|
E|1---1---1---1---1---1---1---1-3/5---5--------------------------|

e|------- 1------ ----1-- -------|------- 1------ ----1-- -------|
B|--------4-----------4----------|--------4-----------4----------|
G|--------2-----------2----------|--------2-----------2----------|
D|--------1-----------1----------|--------1-----------1----------|
A|--------3-----------3----------|--------3-----------3----------|
E|--------1-----------1----------|--------1-----------1----------|
baby, now you're moving way too fast
e|-8----- ------- ------- -------|------- 8---10- ------- -------|
B|10---------------------------8/10------------------------------|
G|-------------------------------|-------------------------------|





C7
G|-------------------------------|-------------------------------|
D|-------------------------------|--------5---7---7---5---7---5--|
A|3---3---3---3---3---3---3---3-5/7---7--------------------------|
E|-------------------------------|-------------------------------|

e|------- 0------ ----0-- -------|-0----- ----0-- ----0-- 0------|
B|--------1-----------1----------|-1----------1-------1---1------|
G|--------3-----------3----------|-3----------3-------3---3------|
D|--------2-----------2----------|-2----------2-------2---2------|
A|--------3-----------3----------|-3----------3-------3---3------|
E|-------------------------------|-------------------------------|

e|------- ------- ------- -------|------- ------- ------- ----7--|
B|-------------------------------|--------8---10------8---10--9--|
G|------------------------------7/9------------------------------|
D|-------------------------------|-------------------------------|







G|-------------------------------|-------------------------------|
D|-------------------------------|--------5---7---7---5---7---5--|
A|3---3---3---3---3---3---3---3-5/7---7--------------------------|
E|-------------------------------|-------------------------------|

e|------- 0------ 0---0-- -------|-0----- ----0-- ----0-- -------|
B|--------1-------1---1----------|-1----------1-------1----------|
G|--------3-------3---3----------|-3----------3-------3----------|
D|--------2-------2---2----------|-2----------2-------2----------|
A|--------3-------3---3----------|-3----------3-------3----------|
E|-------------------------------|-------------------------------|
you're gonna
e|------- ------- ------- -------|------- ------- ------- -------|
B|8------------------------------|--------8---10------8---10--8--|
G|9-----------------------------7/9------------------------------|
D|-------------------------------|-------------------------------|






G7 F7
D|-------------------------------|-------------------------------|
A|-------------------------------|-------------------------------|
E|3---3---3---3---3---3---3---3--|1---1---1---1---1---1---1---1--|

e|------- ------- ------- -------|------- ------- ------- -------|
B|-------------------------------|-------------------------------|
G|-------------------------------|-------------------------------|
D|5-------5---5-------5---5------|3-------3---3-------3---3------|
A|5-------5---5-------5---5------|3-------3---3-------3---3------|
E|3-------3---3-------3---3------|1-------1---1-------1---1------|
give me litlle lovin' give me litlle lovin'




C7
e|0------ ------- ------- -------|------- ------- ------- -------|
B|1------------------------------|-------------------------------|
G|3------------------------------|-------------------------------|
D|2------------------------------|-------------------------------|
A|3------------------------------|-------------------------------|
E|-------------------------------|-------------------------------|
Ow If you want our love to last






G|-------------------------------|-------------------------------|
D|-------------------------------|--------5---7---7---5---7---5--|
A|3---3---3---3---3---3---3---3-5/7---7--------------------------|
E|-------------------------------|-------------------------------|

e|0------ 0------ ----0-- -------|-0----- ----0-- ----0-- 0------|
B|1-------1-----------1----------|-1----------1-------1---1------|
G|3-------3-----------3----------|-3----------3-------3---3------|
D|2-------2-----------2----------|-2----------2-------2---2------|
A|3-------3-----------3----------|-3----------3-------3---3------|
E|-------------------------------|-------------------------------|

e|------- ------- ------- -------|------- ------- ------- -------|
B|-------------------------------|--------8---10--------------7--|
G|------------------------------7/9---------------------------8--|
D|-------------------------------|-------------------------------|






G|-------------------------------|-------------------------------|
D|-------------------------------|--------5---7---7---5---7---5--|
A|3---3---3---3---3---3---3---3-5/7---7--------------------------|
E|-------------------------------|-------------------------------|

e|------- 0------ ----0-- ----0--|-0----- 0---0-- ----0-- 0------|
B|--------1-----------1-------1--|-1------1---1-------1---1------|
G|--------3-----------3-------3--|-3------3---3-------3---3------|
D|--------2-----------2-------2--|-2------2---2-------2---2------|
A|--------3-----------3-------3--|-3------3---3-------3---3------|
E|-------------------------------|-------------------------------|
Well, I
e|------- ------- ------- -------|------- ------- ------- -------|
B|8------------------------------|--------8---10--------------7--|
G|9-----------------------------7/9---------------------------8--|
D|-------------------------------|-------------------------------|






G|-------------------------------|-------------------------------|
D|-------------------------------|--------5---7---7---5---7---5--|
A|3---3---3---3---3---3---3---3-5/7---7--------------------------|
E|-------------------------------|-------------------------------|

e|------- 0------ ------- 0------|------- 0------ ---0--- -------|
B|--------1---------------1------|--------1----------1-----------|
G|--------3---------------3------|--------3----------3-----------|
D|--------2---------------5------|--------5----------5-----------|
A|--------3---------------3------|--------3----------3-----------|
E|-------------------------------|-------------------------------|
used to walk you home baby after school
e|------- ------- ------- -------|------- ------- ------- -------|
B|8------------------------------|--------8---10------8---10--7--|
G|9-----------------------------7/9---------------------------8--|
D|-------------------------------|-------------------------------|







G|-------------------------------|-------------------------------|
D|-------------------------------|--------5---7---7---5---7---5--|
A|3---3---3---3---3---3---3---3-5/7---7--------------------------|
E|-------------------------------|-------------------------------|

e|------- 0------ ------- 0------|------- 0------ ---0--- ----0--|
B|--------1---------------1------|--------1----------1--------1--|
G|--------3---------------3------|--------3----------3--------3--|
D|--------2---------------2------|--------2----------2--------2--|
A|--------3---------------3------|--------3----------3--------3--|
E|-------------------------------|-------------------------------|
carry your books home too, but
e|------- ------- ------- -------|------- ------- ------- -------|
B|8------------------------------|--------8---10--------------7--|
G|9-----------------------------7/9---------------------------8--|
D|-------------------------------|-------------------------------|






G|-------------------------------|-------------------------------|
D|-------------------------------|--------5---7---7---5---7---5--|
A|3---3---3---3---3---3---3---3-5/7---7--------------------------|
E|-------------------------------|-------------------------------|

e|------- 0------ ------- 0------|------- 0------ ----0-- -------|
B|--------1---------------1------|--------1-----------1----------|
G|--------3---------------3------|--------3-----------3----------|
D|--------2---------------5------|--------5-----------5----------|
A|--------3---------------3------|--------3-----------3----------|
E|-------------------------------|-------------------------------|
now you got a boyfriend down the street
e|------- ------- ------- -------|------- ------- ------- -------|
B|8------------------------------|--------8---10------8---10--8--|
G|9-----------------------------7/9------------------------------|
D|-------------------------------|-------------------------------|




e|0------ ------- ------- -------|------- ------- ------- -------|
B|1------------------------------|-------------------------------|
G|3------------------------------|-------------------------------|
D|2------------------------------|-------------------------------|
A|3------------------------------|-------------------------------|
E|-------------------------------|-------------------------------|
Baby what you're trying to do, You better slow down




F7
D|-------------------------------|-------------------------------|
A|-------------------------------|--------3---5---5---3---5---3--|
E|1---1---1---1---1---1---1---1-3/5---5--------------------------|

e|------- 1------ ----1-- -------|1------ ----1-- ----1-- 1------|
B|--------4-----------4----------|4-----------4-------4---4------|
G|--------2-----------2----------|2-----------2-------2---2------|
D|--------1-----------1----------|1-----------1-------1---1------|
A|--------3-----------3----------|3-----------3-------3---3------|
E|--------1-----------1----------|1-----------1-------1---1------|

e|-8----- ------- ------- -------|------- 8---10- ----8-- 10--7--|
B|10---------------------------8/10---------------------------9--|
G|-------------------------------|-------------------------------|





D|-------------------------------|-------------------------------|
A|-------------------------------|--------3---5---5---3---5---3--|
E|1---1---1---1---1---1---1---1-3/5---5--------------------------|

e|------- 1------ ----1-- ----1--|------- 1------ ----1-- -------|
B|--------4-----------4-------4--|--------4-----------4----------|
G|--------2-----------2-------2--|--------2-----------2----------|
D|--------1-----------1-------1--|--------1-----------1----------|
A|--------3-----------3-------3--|--------3-----------3----------|
E|--------1-----------1-------1--|--------1-----------1----------|
baby, you're moving way too fast
e|-8----- ------- ------- -------|------- 8---10- ----8-- 10-----|
B|10---------------------------8/10------------------------------|
G|-------------------------------|-------------------------------|





C7
G|-------------------------------|-------------------------------|
D|-------------------------------|--------5---7---7---5---7---5--|
A|3---3---3---3---3---3---3---3-5/7---7--------------------------|
E|-------------------------------|-------------------------------|

e|------- 0------ ----0-- -------|-0----- ----0-- ----0-- -------|
B|--------1-----------1----------|-1----------1-------1----------|
G|--------3-----------3----------|-3----------3-------3----------|
D|--------2-----------5----------|-5----------5-------5----------|
A|--------3-----------3----------|-3----------3-------3----------|
E|-------------------------------|-------------------------------|

e|------- ------- ------- -------|------- ------- ------- -------|
B|-------------------------------|--------8---10------8---10--7--|
G|------------------------------7/9---------------------------8--|
D|-------------------------------|-------------------------------|






G|-------------------------------|-------------------------------|
D|-------------------------------|--------5---7---7---5---7---5--|
A|3---3---3---3---3---3---3---3-5/7---7--------------------------|
E|-------------------------------|-------------------------------|

e|------- 0------ ----0-- -------|-0----- ------- ----0-- -------|
B|--------1-----------1----------|-1------------------1----------|
G|--------3-----------3----------|-3------------------3----------|
D|--------2-----------5----------|-5------------------5----------|
A|--------3-----------3----------|-3------------------3----------|
E|-------------------------------|-------------------------------|
you're gonna
e|------- ------- ------- -------|------- ------- ------- -------|
B|8------------------------------|--------8---10------8---10--8--|
G|9-----------------------------7/9------------------------------|
D|-------------------------------|-------------------------------|




G7 F7
D|-------------------------------|-------------------------------|
A|-------------------------------|-------------------------------|
E|3---3---3---3---3---3---3---3--|1---1---1---1---1---1---1---1--|

e|3------ 3---3-- ----3-- 3------|1------ 1---1-- ----1-- 1------|
B|6-------6---6-------6---6------|4-------4---4-------4---4------|
G|4-------4---4-------4---4------|2-------2---2-------2---2------|
D|3-------3---3-------3---3------|1-------1---1-------1---1------|
A|5-------5---5-------5---5------|3-------3---3-------3---3------|
E|3-------3---3-------3---3------|1-------1---1-------1---1------|
give me litlle lovin' give me litlle lovin'





C7
e|0------ ------- ------- -------|------- ------- ------- -------|
B|1------------------------------|-------------------------------|
G|3------------------------------|-------------------------------|
D|2------------------------------|-------------------------------|
A|3------------------------------|-------------------------------|
E|-------------------------------|-------------------------------|
Brrrrrrrrr If you want our love to last





G|-------------------------------|-------------------------------|
D|-------------------------------|--------5---7---7---5---7---5--|
A|3---3---3---3---3---3---3---3-5/7---7--------------------------|
E|-------------------------------|-------------------------------|

e|0------ 0------ 0---0-- -------|-0----- ----0-- ----0-- -------|
B|1-------1-------1---1----------|-1----------1-------1----------|
G|3-------3-------3---3----------|-3----------3-------3----------|
D|2-------2-------2---2----------|-2----------2-------2----------|
A|3-------3-------3---3----------|-3----------3-------3----------|
E|-------------------------------|-------------------------------|

e|------- ------- ------- -------|------- ------- ------- -------|
B|-------------------------------|--------8---10------8---10--8--|
G|------------------------------7/9------------------------------|
D|-------------------------------|-------------------------------|


Solo

G|-------------------------------|-------------------------------|
D|-------------------------------|--------5---7---7---5---7---5--|
A|3---3---3---3---3---3---3---3-5/7---7--------------------------|
E|-------------------------------|-------------------------------|

e|------- 0------ ----0-- -------|-0----- ------- ------- -------|
B|--------1-----------1----------|-1-----------------------------|
G|--------3-----------3----------|-3-----------------------------|
D|--------2-----------5----------|-5-----------------------------|
A|--------3-----------3----------|-3-----------------------------|
E|-------------------------------|-------------------------------|

e|------- ------- ------- -------|------- ------- ------- -------|
B|-------------------------------|-------------------------------|
G|-------------------------------|-------------------------------|
D|-------------------------------|--------------------1----------|
A|-------------------------------|--------------1H3-----------3--|
E|-------------------------------|--------3---3------------------|



C7
e|------- ------- ------- -------|------- ------- ------- -------|
B|-------------------------------|-------------------------------|
G|-------------------------------|-------------------------------|
D|----------------1---3-------3-/|5---5-------5-\-3---1----------|
A|--------3----------------------|----------------------------3--|
E|-------------------------------|-------------------------------|




e|------- ------- ------- -------|------- ------- ------- -------|
B|-------------------------------|-------------------------------|
G|-------------------------------|----3--------------------------|
D|----------------1---3-------3-/|5-----------5-\-3---1----------|
A|3-------3----------------------|----------------------------3--|
E|-------------------------------|-------------------------------|




e|------- ------- ------- -------|------- ------- ------- -------|
B|-------------------------------|-------------------------------|
G|-------------------------------|--------3----------------------|
D|------------------------1---3-3/5-------------5\3---1---------3/
A|--------3----------------------|-------------------------------|
E|-------------------------------|-------------------------------|




e|------- ------- ------- -------|------- ------- ------- -------|
B|-------------------------------|-------------------------------|
G|--3-------------3--------------|--------3----------------------|
D|5-----------3/5-------3/5-----3/5-----------5-\-3---1-------3--|
A|-------------------------------|-------------------------------|
E|-------------------------------|-------------------------------|



F7
e|------- ------- ------- -------|------- ------- ------- -------|
B|-------------------------------|-------------------------------|
G|-------------------------------|-------------------------------|
D|--------3----------------------|3-B-4-------4-R-3-------1------|
A|-------------------------------|-------------------------------|
E|-------------------------------|-------------------------------|




e|------- ------- ------- -------|------- ------- ------- -------|
B|--------------------4-------6B7|--------6B7-----6-------4------|
G|--------------3H5--------------|----------------------------5--|
D|--------5----------------------|-------------------------------|
A|-------------------------------|-------------------------------|
E|-------------------------------|-------------------------------|



C7
e|------- ------- ------- -------|---8--- ------- ------- -------|
B|----------------4---6----------|-8------8----------------------|
G|--------5----------------------|11-----11----12\10--8----------|
D|-------------------------------|-------------------------------|
A|-------------------------------|-------------------------------|
E|-------------------------------|-------------------------------|




e|-8----- -8----- ----8-- ----8--|-8----- -8----- ------- -------|
B|-8-------8----------8-------8--|-8-------8---------------------|
G|11------11---------11------11--|11------11---12\10--8----------|
D|-------------------------------|-------------------------------|
A|-------------------------------|-------------------------------|
E|-------------------------------|-------------------------------|



G7
e|------- ------- ------- -------|------- ------- ------- -------|
B|--------8-----------8----------|8-----------8-8\6--------------|
G|-------------10/12---------10/2|---10-/-12---------------------|
D|-------------------------------|-------------------------------|
A|-------------------------------|-------------------------------|
E|-------------------------------|-------------------------------|


F7
e|------- 8------ ----8-- -------|8------ ----8-- ----8-- -------|
B|--------7-----------6----------|7-----------6-------7----------|
G|-------------------------------|-------------------------------|
D|-------------------------------|-------------------------------|
A|-------------------------------|-------------------------------|
E|-------------------------------|-------------------------------|


C7
e|------- 8------ ----8-- -------|----8-- ------- ------- 8------|
B|--------------6\8-------------7B8-----------7-B-8--------------|
G|-------------------------------|-------------------------------|
D|-------------------------------|-------------------------------|
A|-------------------------------|-------------------------------|
E|-------------------------------|-------------------------------|
E|-------------------------------|-------------------------------|



e|------- ------- ------- -------|------- ------- ------- -------|
B|-------------------------------|-------------------------------|
G|-------------------------------|-------------------------------|
D|-------------------------------|--------5---7---7---5---7---5--|
A|3---3---3---3---3---3---3---3-5/7---7--------------------------|
E|-------------------------------|-------------------------------|

e|------- 0------ ----0-- ----0--|-0----- 0------ 0---0-- -------|
B|--------1-----------1-------1--|-1------1-------1---1----------|
G|--------3-----------3-------3--|-3------3-------3---3----------|
D|--------2-----------2-------2--|-2------2-------2---2----------|
A|--------3-----------3-------3--|-3------3-------3---3----------|
E|-------------------------------|-------------------------------|
Well, you
e|------- ------- ------- -------|------- ------- ------- -------|
B|--------7\6---6P4--------------|4-------4-------4---4----------|
G|--------------------5---3---5--|--------3-------3---3----------|
D|-------------------------------|-------------------------------|
A|-------------------------------|-------------------------------|
E|-------------------------------|-------------------------------|
E|-------------------------------|-------------------------------|





G|-------------------------------|-------------------------------|
D|-------------------------------|--------5---7---7---5---7---5--|
A|3---3---3---3---3---3---3---3-5/7---7--------------------------|
E|-------------------------------|-------------------------------|

e|------- 0------ ----0-- -------|------- 0------ ----0-- ----0--|
B|--------1-----------1----------|--------1-----------1-------1--|
G|--------3-----------3----------|--------3-----------3-------3--|
D|--------2-----------2----------|--------2-----------2-------2--|
A|--------3-----------3----------|--------3-----------3-------3--|
E|-------------------------------|-------------------------------|
know that I love you, tell the world I do come
e|------- ------- ------- -------|------- ------- ------- -------|
B|8------------------------------|--------8---10------8---10--7--|
G|9-----------------------------7/9---------------------------8--|
D|-------------------------------|-------------------------------|








G|-------------------------------|-------------------------------|
D|-------------------------------|--------5---7---7---5---7---5--|
A|3---3---3---3---3---3---3---3-5/7---7--------------------------|
E|-------------------------------|-------------------------------|

e|------- 0------ ----0-- ----0--|-0----- 0---0-- ----0-- ----0--|
B|--------1-----------1-------1--|-1------1---1-------1-------1--|
G|--------3-----------3-------3--|-3------3---3-------3-------3--|
D|--------2-----------2-------2--|-2------2---2-------2-------2--|
A|--------3-----------3-------3--|-3------3---3-------3-------3--|
E|-------------------------------|-------------------------------|
on pretty baby, why can't you be true I
e|------- ------- ------- -------|------- ------- ------- -------|
B|8------------------------------|--------8---10------8---10--7--|
G|9-----------------------------7/9---------------------------8--|
D|-------------------------------|-------------------------------|






G|-------------------------------|-------------------------------|
D|-------------------------------|--------5---7---7---5---7---5--|
A|3---3---3---3---3---3---3---3-5/7---7--------------------------|
E|-------------------------------|-------------------------------
need you badly, baby, oh so bad the
e|------- 0------ ----0-- -------|------- 0---0-- ----0-- 0------|
B|--------1-----------1----------|--------1---1-------1---1------|
G|--------3-----------3----------|--------3---3-------3---3------|
D|--------2-----------2----------|--------2---2-------2---2------|
A|--------3-----------3----------|--------3---3-------3---3------|
E|-------------------------------|-------------------------------|

e|------- ------- ------- -------|------- ------- ------- -------|
B|8------------------------------|--------8---10------8---10--7--|
G|9-----------------------------7/9---------------------------8--|
D|-------------------------------|-------------------------------|






e|0------ ------- ------- -------|------- ------- ------- -------|
B|1------------------------------|-------------------------------|
G|3------------------------------|-------------------------------|
D|2------------------------------|-------------------------------|
A|3------------------------------|-------------------------------|
E|-------------------------------|-------------------------------|
best little woman I ever had Slow down
e|------- ------- ------- -------|------- ------- ------- -------|
B|8------------------------------|-------------------------------|
G|9------------------------------|-------------------------------|
D|-------------------------------|-------------------------------|





F7
D|-------------------------------|-------------------------------|
A|-------------------------------|--------3---5---5---3---5---3--|
E|1---1---1---1---1---1---1---1-3/5---5--------------------------|

e|------- 1------ ----1-- ----1--|1------ ----1-- ----1-- -------|
B|--------4-----------4-------4--|4-----------4-------4----------|
G|--------2-----------2-------2--|2-----------2-------2----------|
D|--------1-----------1-------1--|1-----------1-------1----------|
A|--------3-----------3-------3--|3-----------3-------3----------|
E|--------1-----------1-------1--|1-----------1-------1----------|

e|-8----- ------- ------- -------|------- 8---10- ------- ----7--|
B|10---------------------------8/10---------------------------9--|
G|-------------------------------|-------------------------------|





D|-------------------------------|-------------------------------|
A|-------------------------------|--------3---5---5---3---5---3--|
E|1---1---1---1---1---1---1---1-3/5---5--------------------------|

e|------- 1------ ----1-- ----1--|------- 1------ ----1-- -------|
B|--------4-----------4-------4--|--------4-----------4----------|
G|--------2-----------2-------2--|--------2-----------2----------|
D|--------1-----------1-------1--|--------1-----------1----------|
A|--------3-----------3-------3--|--------3-----------3----------|
E|--------1-----------1-------1--|--------1-----------1----------|
baby, now you're moving way too fast
e|-8----- ------- ------- -------|------- 8---10- ------- -------|
B|10---------------------------8/10---------------------------7--|
G|-------------------------------|----------------------------8--|





C7
G|-------------------------------|-------------------------------|
D|-------------------------------|--------5---7---7---5---7---5--|
A|3---3---3---3---3---3---3---3-5/7---7--------------------------|
E|-------------------------------|-------------------------------|

e|------- 6------ 6---6-- ----6--|6------ 6------ 6---6-- ----6--|
B|--------5-------5---5-------5--|5-------5-------5---5-------5--|
G|--------3-------3---3-------3--|3-------3-------3---3-------3--|
D|--------5-------5---5-------5--|5-------5-------5---5-------5--|
A|--------3-------3---3-------3--|3-------3-------3---3-------3--|
E|-------------------------------|-------------------------------|

e|------- ------- ------- -------|------- ------- ------- -------|
B|8------------------------------|--------8---10------8---10--7--|
G|9-----------------------------7/9---------------------------8--|
D|-------------------------------|-------------------------------|






G|-------------------------------|-------------------------------|
D|-------------------------------|--------5---7---7---5---7---5--|
A|3---3---3---3---3---3---3---3-5/7---7--------------------------|
E|-------------------------------|-------------------------------|

e|------- 6------ 6---6-- -------|6------ 6---6-- 6---6-- 6------|
B|--------5-------5---5----------|5-------5---5---5---5---5------|
G|--------3-------3---3----------|3-------3---3---3---3---3------|
D|--------5-------5---5----------|5-------5---5---5---5---5------|
A|--------3-------3---3----------|3-------3---3---3---3---3------|
E|-------------------------------|-------------------------------|
you're gonna
e|------- ------- ------- -------|------- ------- ------- -------|
B|8------------------------------|--------8---10------8---10--7--|
G|9-----------------------------7/9---------------------------8--|
D|-------------------------------|-------------------------------|





G7 F7
D|-------------------------------|-------------------------------|
A|-------------------------------|-------------------------------|
E|3---3---3---3---3---3---3---3--|1---1---1---1---1---1---1---1--|

e|3------ 3---3-- ----3-- 3------|1------ 1---1-- ----1-- 1------|
B|6-------6---6-------6---6------|4-------4---4-------4---4------|
G|4-------4---4-------4---4------|2-------2---2-------2---2------|
D|3-------3---3-------3---3------|1-------1---1-------1---1------|
A|5-------5---5-------5---5------|3-------3---3-------3---3------|
E|3-------3---3-------3---3------|1-------1---1-------1---1------|
give me litlle lovin' give me litlle lovin'




C7
e|0------ ------- ------- -------|------- ------- ------- -------|
B|1------------------------------|-------------------------------|
G|3------------------------------|-------------------------------|
D|2------------------------------|-------------------------------|
A|3------------------------------|-------------------------------|
E|-------------------------------|-------------------------------|
Ow If you want our love to last





G|-------------------------------|-------------------------------|
D|-------------------------------|--------5---7---7---5---7---5--|
A|3---3---3---3---3---3---3---3-5/7---7--------------------------|
E|-------------------------------|-------------------------------|

e|------- 0------ ----0-- -------|0------ ----0-- ----0-- -------|
B|--------1-----------1----------|1-----------1-------1----------|
G|--------3-----------3----------|3-----------3-------3----------|
D|--------2-----------2----------|5-----------5-------5----------|
A|--------3-----------3----------|3-----------3-------3----------|
E|-------------------------------|-------------------------------|
Ow
e|------- ------- ------- -------|------- ------- ------- -------|
B|-------------------------------|-------------------------------|
G|-------------------------------|-------------------------------|
D|-------------------------------|-------------------------------|
A|-------------------------------|----------------------------3--|
E|-------------------------------|-------------------------------|


(.

e|------- 0------ ------- 0------|------- ----0-- ------- 0------|
B|--------1---------------1------|------------1-----------1------|
G|--------3---------------3------|------------3-----------3------|
D|--------2---------------2------|------------2-----------2------|
A|--------3---------------3------|------------3-----------3------|
E|-------------------------------|-------------------------------|

C9
e|------- ------- ------- -------|------- ------- ------- 3------|
B|-------------------------------|------------------------3------|
G|-------------------------------|------------------------3------|
D|-------------------------------|------------------------2------|
A|----3---1----------------------|----1---2---3-----------2------|
E|----------------3-------1------|3------------------------------|







B Bend
R Release
/ slide up
\ slide down
H hammer-on
P pull-off
~ vibrato
+ harmonic
x Mute note
. - play note like a dot in standard notation
^ - ties two notes together
(. Pause

pjvill

Submitted by pjvill at Thu 15 Dec, 2005 9:58 am

Author: ?
Composer: ?
Publisher: ?
Language: English

Reactions

CommonCrawl [Bot]

Follow Muzikum